Bomfunk Mcs - Freestyler Chords & Tabs

 

Freestyler Chords & Tabs

Bomfunk Mcs Chords & Tabs

Version: 3 Type: Tab 0 ratings
1 star 2 stars 3 stars 4 stars 5 stars
comments

Freestyler Tab

HEY YO!
ENJOY!

Think this is right:
[ Tab from: http://www.guitartabs.cc/tabs/b/bomfunk_mcs/freestyler_tab_ver_3.html ]
e|----------------------------------------------------------------------|
B|----8-----8------8------7-------7---------7---------------------------|
G|------9-----9------9------9-------9---------9-------------------------|
D|--------9-----9-------------9-------9---------------------------------|
A|----------------------------------------------------------------------|
E|----------------------------------------------------------------------|

e|----------------------------------------------------------------------|
B|------3------3------3-------5-------5--------5------------------------|
G|--------5------5------5-------7-------7--------7----------------------|
D|----------5------5--------------7-------7--------7--------------------|
A|----------------------------------------------------------------------|
E|----------------------------------------------------------------------|
Comments