Bomfunk Mcs - Freestyler Chords & Tabs

 

Freestyler Chords & Tabs

Bomfunk Mcs Chords & Tabs

Version: 1 Type: Tab 0 ratings
1 star 2 stars 3 stars 4 stars 5 stars
comments

Freestyler Tab

Bomfunk Mc's
FreeStyler

Here is only the beginnin.
[ Tab from: http://www.guitartabs.cc/tabs/b/bomfunk_mcs/freestyler_tab.html ]
e -----12-15----12-15----12-14----12-14----12-14-12-------10-----
H --12-------12-------12-------12-------12-------------13--------
G --------------------------------------------------12-----------
D ---------------------------------------------------------------
A ---------------------------------------------------------------
E ---------------------------------------------------------------


e --------10-------12-------12-------12-10-----------------------
H -----13-------13-------13-------13-----------------------------
G --12-------12-------12-------12--------------------------------
D ---------------------------------------------------------------
A ---------------------------------------------------------------
E ---------------------------------------------------------------
Comments