Bombshell - Misunderstood Chords & Tabs

 

Misunderstood Chords & Tabs

Bombshell Chords & Tabs

Version: 1 Type: Tab 0 ratings
1 star 2 stars 3 stars 4 stars 5 stars
comments

Misunderstood Tab

                           "Misunderstood" 
                            Chris Stephens

 Intro>Guitar 1
 
 --------------------------------------------------
 --------------------------------------------------
 --------------------------------------------------
 -00-44-55-77-55-44-------------44--------22-------
 ------------------55-00---44-55--00-44-55---------
 ------------------------33------------------------

 Guitar 2
 
 --------------------------------------------------
 --------------------------------------------------
 --------------------------------------------------
 -7------------------------------------------------
 -5-(count to 8)-5--------------7------------------
 ----------------3-(count to 4)-5-(count to 4)----- 
[ Tab from: http://www.guitartabs.cc/tabs/b/bombshell/misunderstood_tab.html ]
 Pre-Verse

 --------------------------------------------------
 --------------------------------------------------
 --------------------------------------------------
 -777777--------999999-121212121212----------------
 -555555-555555-777777-101010101010----------------
 --------333333------------------------------------

 Verse

 --------------------------------------------------
 --------------------------------------------------
 --------------------------------------------------
 -7------------------------------------------------
 -5-(8x's)--9--------5-----------------------------
 -----------7-(8x's)-3-(14x's)---------------------

Here's how to play my song:

1.Intro
2.Pre-Verse
3.Verse
4.Intro
5.Pre-Verse
6.Verse
7. Intro w/ drum solo
Comments