Bombshell - Expired Chords & Tabs

 

Expired Chords & Tabs

Bombshell Chords & Tabs

Version: 1 Type: Tab 0 ratings
1 star 2 stars 3 stars 4 stars 5 stars
comments

Expired Tab

   
                          Expired
                     By: Chris Stephens

 This song is in Drop D tuning
 /= Pull Off and *= Palm Mute

Intro

------------------------------------
------------------------------------
------------------------------------
------4/0--5/0----------------------
--------------0-0-0---5/0--0--7/0---
-0-0-0---0--------------------------

-----------------------------------
-----------------------------------
-----------------------------------
-------7/0--5/0--------------------
----------------0-0-0--4/0--0--5/0-
-5-5-5----5------------------------

Chorus
[ Tab from: http://www.guitartabs.cc/tabs/b/bombshell/expired_tab.html ]
-------------------------------
-------------------------------
-------------------------------
-7---------7---------7---------
-5-(8x's)--4-(8x's)--5-(14x's)-
---------------------5---------

D-Chorus

-------------------------------
-------------------------------
-------------------------------
-2-2--22222222--4-7------------
-2-2--22222222--4-5------------
-2-2--22222222--4-5------------
      ********

Outro

------------------------
------------------------
------------------------
-7-7--77--00-77---------
-5-5--55--00-55---------
---5------00------------

How to play the song:

Intro
Chorus
D-Chorus
Chorus
Intro
Chorus
D-Chorus
Solo
Outro

Solo will be added later!
Comments