Bombshell - Back To School Chords & Tabs

 

Back To School Chords & Tabs

Bombshell Chords & Tabs

Version: 1 Type: Tab 0 ratings
1 star 2 stars 3 stars 4 stars 5 stars
comments

Back To School Tab

              Back to School- Bombshell
               Intro

   repeat 2x\\\'s
  --------------------------------------------
  --------------------------------------------
  --------------------------------------------
  --------------------2-2-2-2-4-4-4-4-------    
  -2-2-2-2-4-4-4-4-0-0-0-0-2-2-2-2------
  -0-0-0-0-2-2-2-2-------------------------

      
  Chorus/ Song

-9-9-9-9-------------------------------
-7-7-7-7-9-9-9-9-11-11-11-11-7-7-7-7           repeat 4x\\\'s
-----------7-7-7-7--9--9--9--9--5-5-5-5
[ Tab from: http://www.guitartabs.cc/tabs/b/bombshell/back_to_school_tab.html ]
(Rythm guitar play Chorus/Song during guitar solo)

Solo:  
-12-11----------------------------E
-------14-12-9-10-5-7-----------B
-----------------------------------G

(Strumming is in doubles)

Bass:
--------------------------------------
--------------------------------------
-------------------0-0-0-0-2-2-2-2----
0-0-0-0-2-2-2-2-----------------------

     -----------------------------------------------
     -----------------------------------------------
     7-7-7-7-0------------------------------------
     ------------7-7-7-7-0-9-9-9-9-0-5-5-5-5-0
Comments