Bombed Out Priests - Road To Rehab Chords & Tabs

 

Road To Rehab Chords & Tabs

Bombed Out Priests Chords & Tabs

Version: 1 Type: Tab 0 ratings
1 star 2 stars 3 stars 4 stars 5 stars
comments

Road To Rehab Tab

The intro is too long to tab and i cant be bothered, its a 
drone riff on the d string with major then minor bits over 
the top, work it out yourself :P Here is the rest.........

Main Riff
--------------------------------------------------------------
--------------------------------------------------------------
--------------------------------------------------------------
--------------------------------------------------7b8r7--5~---
---------5-h7--7-----5-h7--7~--------5-h7--7------------------
--0--0------------0------------0--0-----------0---------------



Verse Riff
--------------------------------------------------------------
--------8--8--8------8--8-----8--------8--8--8------9---------
--------7--7--7------7--7-----7--------7--7--7------8---------
--------6--6--6------6--6-----6--------6--6--6------7---------
--------7--7--7------7--7-----7--------7--7--7------8---------
--0--0------------0--------------0--0-------------------------

Bridge
--------------------------------------------------------------
--------------------------------------------------------------
--------------------------------------------------------------
--5-5-5-5-5-5-5-5-7-7-7-7-7-7-7-7-------------------7b8r7--5~-
--5-5-5-5-5-5-5-5-7-7-7-7-7-7-7-7--------5-h7--7--------------
--3-3-3-3-3-3-3-3-5-5-5-5-5-5-5-5--0--0----------0------------

Chorus
----------5---------------------------------------------------
--9---7---5---------------------------------------------------
--9---7---6---------------------------------------------------
--9---7---7--------------------7b8r7--5~----------------------
--7---5---7---------5-h7--7-----------------------------------
----------5---0--0----------0---------------------------------

Build (guitar1)
----------5---0-----------------------------------------------
--9---7---5---0-----------------------------------------------
--9---7---6---1-----------------------------------------------
--9---7---7---2-----------------------------------------------
--7---5---7---2-----------------------------------------------
----------5---0-----------------------------------------------

Build (guitar2)
--------------------------------------------------------------
--0-trill-2---------------------------------------------------
--------------------------------------------------------------
--------------------------------------------------------------
--------------------------------------------------------------
--------------------------------------------------------------

Lead Break (w/bridge riff)
--------------------------------------------------------------
-3---3---5---5---3---3---5---5---3---5---6----7---------------
-5b7-5b7-7b9-7b9-7b9-7b9-7b9-7b9-5b7-7b9-8b10-9b11------------
--------------------------------------------------------------
--------------------------------------------------------------
--------------------------------------------------------------

Solo (w/chorus chords)
--------------------------------------------------------------
-15---15---15-------------------------------------------------
-14b--14b~----14br--12h14p12-----12---------------------------
------------------------------14----14-12-12-/14~-------------
--------------------------------------------------------------
--------------------------------------------------------------

--------------------------------------------------------------
--------------------------------------12-14-15-12-14-15--17~~-
--------------------12-14-15-12-14-15-------------------------
--12-14-15-12-14-15-------------------------------------------
--------------------------------------------------------------
--------------------------------------------------------------
[ Tab from: http://www.guitartabs.cc/tabs/b/bombed_out_priests/road_to_rehab_tab.html ]
--------------------------------------------------------------
---15h17p15--14h15p14-12h14p12----12--------------------------
-------------------------------14----14--12-------------------
---------------------------------------------14---------------
--------------------------------------------------------------
--------------------------------------------------------------

-----------------------------------------------12-14-15---17~-
-----------------------------12-14-15-------------------------
-----------12-14-15-------------------12-14-15----------------
--------------------12-14-15----------------------------------
--12-14-15----------------------------------------------------
--------------------------------------------------------------

--------------------------------------------------------------
--12h14-14-14-x-12-12-x-x-x-x-12h14-14-14-x-12-12-x-x-x-x-----
--12h14-14-14-x-12-12-x-x-x-x-12h14-14-14-x-12-12-x-x-x-x-----
--12h14-14-14-x-12-12-x-x-x-x-12h14-14-14-x-12-12-x-x-x-x-----
--------------------------------------------------------------
--------------------------------------------------------------

--------------------------------------------------------------
--12h14-14-14-x---12h14-14-14-x--12h14-xx-12h14-14-14-x-12-12-
--12h14-14-14-x---12h14-14-14-x--12h14-xx-12h14-14-14-x-12-12-
--12h14-14-14-x---12h14-14-14-x--12h14-xx-12h14-14-14-x-12-12-
--------------------------------------------------------------
--------------------------------------------------------------
 
-T17-P15-P12-T17-P15-P12-T17-P15-P12-T17-P14-P12--------------
--------------------------------------------------------------
--------------------------------------------------------------
--------------------------------------------------------------
--------------------------------------------------------------
--------------------------------------------------------------

-T17-P15-P12-T17-P15-P12-T17-P15-P12-T17-P14-P12--------------
--------------------------------------------------------------
--------------------------------------------------------------
--------------------------------------------------------------
--------------------------------------------------------------
--------------------------------------------------------------

-T19-P15-P12-T19-P15-P12-T19-P15-P12-T19-P14-P12--------------
--------------------------------------------------------------
--------------------------------------------------------------
--------------------------------------------------------------
--------------------------------------------------------------
--------------------------------------------------------------

-T19-P15-P12-T19-P15-P12-T19-P15-P12-T19-P14-P12--------------
--------------------------------------------------------------
--------------------------------------------------------------
--------------------------------------------------------------
--------------------------------------------------------------
--------------------------------------------------------------

-T20-P15-P12-T20-P15-P12-T20-P15-P12-T20-P14-P12--------------
--------------------------------------------------------------
--------------------------------------------------------------
--------------------------------------------------------------
--------------------------------------------------------------
--------------------------------------------------------------

-T20-P15-P12-T20-P15-P12-T20-P15-P12-T20-P14-P12---21b24~~~---
--------------------------------------------------------------
--------------------------------------------------------------
--------------------------------------------------------------
--------------------------------------------------------------
--------------------------------------------------------------

After the solo go to main riff then bridge riff to end

Sean.
Comments