Bolt Thrower - War Master Chords & Tabs

 

War Master Chords & Tabs

Bolt Thrower Chords & Tabs

Version: 1 Type: Tab 0 ratings
1 star 2 stars 3 stars 4 stars 5 stars
comments

War Master Tab

Bolt Thrower
War Master
War Master
Tabbed By Kevin Cruz

Tune All Strings down one-whole step
[ Tab from: http://www.guitartabs.cc/tabs/b/bolt_thrower/war_master_tab.html ]
D:----------------------------|----------------------------|------|
A:----------------------------|----------------------------|------|
F:----------------------------|----------------------------|------|
G:----------------------------|----------------------------|--3x--|
C:-4-----4--------------------|-4-----4--------------------|------|
D:-2-222-2-222--4-3-0--6-3-0--|-2-222-2-222--4-3-0--6-3-0--|------|

D:--------------------|--------------------|------|
A:--------------------|--------------------|------|
F:--------------------|--------------------|------|
G:------------5-------|------------5-------|--2x--|
C:----5-4---3---3-----|----5-4---3---3-----|------|
D:-0------5-------5---|-0------5-------5---|------|
Comments