Bolt Thrower - The Ivth Crusade Chords & Tabs

 

The Ivth Crusade Chords & Tabs

Bolt Thrower Chords & Tabs

Version: 1 Type: Tab 0 ratings
1 star 2 stars 3 stars 4 stars 5 stars
comments

The Ivth Crusade Tab

   
                                   THE IVth CRUSADE
                            from the album THE IVth CRUSADE
                                   by BOLT THROWER

Transcription by Yalin Uluaydin  E-mail:yeralan@superonline.com

.  - palm mute                          /  - slide up to
\  - slide down to                      ~  - vibrato
h  - hammer on                          b  - bend
p  - pull off                              Suffixes for bend
*  - see comment                                f-full bend
                                                r-release
					ph - pinched harmonic

Tune 1 step down
E=D
B=A
G=F
D=C
A=G
E=D


INTRO

RIFF A  Guitar 1               Guitar II  
E-----------------------|      E------|
B-----p-----------------|      B------|
G--/10^9-9---7-9-10---6-|      G------|
D-------------------8---|      D-2-2--|
A-----------------------|      A-2-2--|
E-----------------------|      E-0-0--|

[ Tab from: http://www.guitartabs.cc/tabs/b/bolt_thrower/the_ivth_crusade_tab.html ]
RIFF B
E------------------------------------------------|
B------------------------------------------------|
G------------------------------------------------|
D------------------------------------------------|
A------------------0-0-2-2-3-3-----0-0-3-3-2-2---|
E--0-0-0-0-0-0-0-0-------------1-1---------------|
   . . . . . . . . . . . . . . . . . . . .
Return to RIFF A then play RIFF B

RIFF C
E-------------------------------------------|
B-------------------------------------------|
G-------------------------------------------|
D-------------------------------------------|
A--------------------222222-000-22-00-------|
E--1-1-1-1-1-1-1-1--------------------44-11-|
   . . . . . . . .   ...... ... .. .. .. ..

Return to RIFF A x4

RIFF D                                 Guitar 2 over RIFF D
E-------------------------------|------|-------------------------|
B-------------------------------|------|-------------------------|
G--4-----5-----8-7-----7-5-2-5--|------|-------------------------|
D--2-----3-----6-5-----5-3-0-3--|------|--2---3----6-5---5-3-0-3-|
A--2--2--3--3--6-5--5--5-3-0-3--|------|----2---3------5---------|
E-----2-----3-------5-----------|------|-------------------------|

RIFF under SOLO and VOCALS
E-------------------------------------------------|
B-------------------------------------------------|
G-------------------------------------------------|
D-------------------------------------------------|
A-------------------------------------------------|
E-0-0-0-0-3-1-1-1-1-4-3-3-3-3-0-0-3-3-1-1-0-0-1-1-|
  . . . . . . . . . . . . . . . . . . . . . . . .

Then go to RIFF D
Then to RIFF A
Comments