Bolt Thrower - Shreds Of Sanity Chords & Tabs

 

Shreds Of Sanity Chords & Tabs

Bolt Thrower Chords & Tabs

Version: 1 Type: Tab 0 ratings
1 star 2 stars 3 stars 4 stars 5 stars
comments

Shreds Of Sanity Tab

   
Bolt Thrower
The Shreds of Sanity
War Master
Tabbed by Kevin Cruz



Tune all strings down one-whole step: D A F G C D

D:------|----------------|------|----------------|------|
A:------|----------------|------|----------------|------|
F:------|----------------|------|----------------|------|
G:-2~---|-5--6---5--6--3-|-2~---|-5--6---5--6--3-|--4x--|
C:-2~---|-5--6---5--6--3-|-2~---|-5--6---5--6--3-|------|
D:-0~---|-3--4---3--4--1-|-0~---|-3--4---3--4--1-|------|

D:---------------------------------------|--------|
A:---------------------------------------|--------|
F:---------------------------------------|--------|
G:--2222---------------------------------|---4x---|
C:--2222---------------------------------|--------|
D:--0000-44-33-11-33444444-11333333-1111-|--------|

D:------|----------------|------|----------------|------|
A:------|----------------|------|----------------|------|
F:------|----------------|------|----------------|------|
G:-2~---|-5--6---5--6--3-|-2~---|-5--6---5--6--3-|--2x--|
C:-2~---|-5--6---5--6--3-|-2~---|-5--6---5--6--3-|------|
D:-0~---|-3--4---3--4--1-|-0~---|-3--4---3--4--1-|------|
[ Tab from: http://www.guitartabs.cc/tabs/b/bolt_thrower/shreds_of_sanity_tab.html ]
D:---------------------------------------|--------|
A:---------------------------------------|--------|
F:---------------------------------------|--------|
G:--2222---------------------------------|---4x---|
C:--2222---------------------------------|--------|
D:--0000-44-33-11-33444444-11333333-1111-|--------|
    .... .. .. .. ........ ........ ....

                                  1.2.3.       4.
D:-------------------------------|------------|-------------------|
A:-------------------------------|------------|-------------------|
F:-------------------------------|------------|-------------------|
G:-------------------------------|------------|-----------------2-|
C:-------------------------------|------------|-3-6-5-3-6-5-3-6-2-|
D:-0000-3322-0000-3322-0000-3322-|-2244223322-|-1-4-3-1-4-3-1-4-0-|
   .... .... .... .... .... ....   ..........   

                            
D:-----------------------|----------|-------------|-------------------|----|
A:-----------------------|----------|-------------|-------------------|----|
F:-----------------------|----------|-------------|-------------------|----|
G:-----------------------|----------|-------------|-----------------2-|-2x-|
C:-----------------------|-3-6-5--2-|-------------|-3-6-5-3-6-5-3-6-2-|----|
D:-0-0-0-0-0-0-0-0-0-0-0-|-1-4-3--0-|-0-0-0-0-0-0-|-1-4-3-1-4-3-1-4-0-|----|
   . . . . . . . . . . .              . . . . . . 

D:----------|-----------------------|------|
A:----------|-----------------------|------|
F:----------|-----------------------|------|
G:-2--------|-2---------------------|--2x--|
C:-2--3-6-5-|-2--3-6-5-3-6-5-3-6-5--|------|
D:-0--1-4-3-|-0--1-4-3-1-4-3-1-4-3--|------|

iT'S ALL I'VE FIGURED OUT

Hey people if you're not an Ultimate-guitar member, be one.
It's great. And it's easy. Just Submit some information and that's it.
No Payment Required.
Comments