Bolt Thrower - Honor Chords & Tabs

 

Honor Chords & Tabs

Bolt Thrower Chords & Tabs

Version: 1 Type: Tab 0 ratings
1 star 2 stars 3 stars 4 stars 5 stars
comments

Honor Tab

   
Honor-
Bolt Thrower
Honor Valor Pride

Tune down one half step drop D

Intro Riff

C#--4---4---3---3----4---4---3---3
G#----5---5---5----5---5---5---5--
C#------------------------------------

Repeat 2x then…

Verse Riff

C#--4---4---3---3---4---4---3---3---------
G#----5---5---5---5---5---5---5----4-3---
C#-------------------------------------4-3----

Repeat 6x then

Chorus

C#-------------------------------7-5-----------------------------------------7-5----
G#-0-0-0-0-0-0-0-0-0-0-0-0-5-3-7-6---0-0-0-0-0-0-0-0-0-0-1-0-3-5-3-7-6
C#-0-0-0-0-0-0-0-0-0-0-0-0------7-6—0-0-0-0-0-0-0-0-0-0-1-0-3------7-6
Back and forth strumming
Play 4x
[ Tab from: http://www.guitartabs.cc/tabs/b/bolt_thrower/honor_tab.html ]
I believe its 12 times but its hard to tell because he plays so fast, if I’m wrong, it’s pretty easy to play along with the cd.

Bridge

C#--5p4---4-----5/7-7/8-8/7-7/5-5—5p4---4------7/8-8/10—8--
G#-------5---5—3/5-5/6-6/5-5/3-3--------5----5—5/6-6/8---6---
C#------------------------------------------------------------------------
Repeat 4x
 That’s all the different parts of the song-the structure is as follows

Intro-2x
Verse-6x
Chorus-4x
Verse-6x
Chorus-4x
Bridge-4x
Chorus-4x
Verse-8x
And after the last verse end with
 
G#-0
C#-0
Then there are some snatches of the intro being played-and that’s it

Tabbed by Mike v.
Any comments or questions can be emailed to me at peopleofthelie50@aol.com, where they will politely be ignored.
Comments