Bolt Thrower - Destructive Infinity Chords & Tabs

 

Destructive Infinity Chords & Tabs

Bolt Thrower Chords & Tabs

Version: 1 Type: Tab 0 ratings
1 star 2 stars 3 stars 4 stars 5 stars
comments

Destructive Infinity Tab

   
Bolt Thrower
Destructive Infinity
War Master
Tabbed By Kevin Cruz

I've Only figured out the beginning.

Tune all Strings one-whole Step: D A F G C D

Play Slowly
D:----------------------------------|------|
A:----------------------------------|------|
F:----------------------------------|------|
G:-------------------------------2~-|--4x--|
C:-5-----------------4-----------2~-|------|
D:----4--3--0--1--3-----4--3--1--0~-|------|
[ Tab from: http://www.guitartabs.cc/tabs/b/bolt_thrower/destructive_infinity_tab.html ]
D:------------|----------------|-----------|---------------|------|
A:------------|----------------|-----------|---------------|------|
F:------------|----------------|-----------|---------------|------|
G:-2~--5-3-2--|-2~--5-3-2-3(5)-|-2~--5-3-2-|---------------|--4x--|
C:-2~---------|-2~-------------|-2~--------|-2-2-2-3-5-3-2-|------|
D:-0~---------|-0~-------------|-0~--------|-0-0-2-3-5-3-2-|------|
                                             . . . . . . .

D:------------------------------------------------|
A:------------------------------------------------|
F:------------------------------------------------|
G:------------------------------------------------|
C:------------------------------------------------|
D:-000000-5-6-000000-3-5-000000-5-6-00-3-5-00-5-6-|
Comments