Bolt Thrower - Cenotaph Chords & Tabs

 

Cenotaph Chords & Tabs

Bolt Thrower Chords & Tabs

Version: 3 Type: Tab 0 ratings
1 star 2 stars 3 stars 4 stars 5 stars
comments

Cenotaph Tab

Bolt Thrower
Cenotaph
War Master
Tabbed By Kevin Cruz

Tune all Strings down one-whole step

D:--------------------------------|--------------------------------|------|
A:--------------------------------|--------------------------------|------|
F:--------------------------------|--------------------------------|------|
G:------------------------------3-|------------------------------3-|--3X--|
C:------------------------------1-|------------------------------1-|------|
D:--0-0-0-0-0-0-0-0-0-0-0-0-0-0---|--0-0-0-0-0-0-0-0-0-0-0-0-0-0---|------|
[ Tab from: http://www.guitartabs.cc/tabs/b/bolt_thrower/cenotaph_tab_ver_3.html ]
D:------------------------------|-------------------------------------------|
A:------------------------------|-------------------------------------------|
F:------------------------------|-------------------------------------------|
G:------------------------------|-------------------------------------------|
C:------------------------------|-2-------------4-------------5-6-----------|
D:--0-0-0-0-0-0-0-0-0-0-0-0-0-0-|-0-0-0-0-0-0-0-2-0-0-0-0-0-0-3-4-0-0-0-0-0-|

D:--------------------|------|
A:--------------------|------|
F:--------------------|--5x--|
G:---5-6-5-3--5-6-5-3-|------|
C:--------------------|------|
D:--------------------|------|

D:----------------------------------|------|
A:----------------------------------|------|
F:-----3-4--------------------------|------|
G:--2-------(5)(6)(5)(3)-(5)(6)(5)--|--4X--|
C:--2-------------------------------|------|
D:--0-------------------------------|------|

D:------------------------------|------|
A:------------------------------|------|
F:-----3-4----------------------|--4X--|
G:--2-------5-6-5-3--5-6-5------|------|
C:--2---------------------------|------|
D:--0---------------------------|------|
Comments