Boikot - Korsakov Chords & Tabs

 

Korsakov Chords & Tabs

Boikot Chords & Tabs

Version: 1 Type: Tab 0 ratings
1 star 2 stars 3 stars 4 stars 5 stars
comments

Korsakov Tab

   
#--------------------------------Guitar Tab------------------------------------#
#                          Boikot - Korsakov (live)                            #
#                            Tabbed By XaViMei                                 #
#                           xavimei@hotmail.com                                #
#------------------------------------------------------------------------------#


Intro (x4)
e:--8--6--7/8--|
B:--8--6--7/8--|
G:--8--6--7/8--|
D:-------------|
A:-------------|
E:-------------|

e:--------------|(0:06)
B:--------------|
G:--8--5--------|
D:--------6--5--|
A:--------------|
E:--------------|

Violin (de fondo)(x2)
e:------------------------------------|-----------------------------|(0:13)
B:-----13-11-13-11--------------------|-----------------------------|
G:--12-------------13-13-12-10-12-----|--13-10-12-7-8-10-10-8-7-----|
D:--------------------------------10--|-------------------------10--|
A:------------------------------------|-----------------------------|
E:------------------------------------|-----------------------------|


2a guitarra (x2)
e:--------------------------------------------------|(0:13)
B:--------------------------------------------------|
G:--5--5--3--3--------------------------3--3--5--5--|
D:--5--5--3--3--6--6--5--5--6--6--5--5--3--3--5--5--|
A:--3--3--1--1--6--6--5--5--6--6--5--5--1--1--3--3--|
E:--------------4--4--3--3--4--4--3--3--------------|
  

Violin (x2)
e:--------11----11-11-----------------------------|(0:27)
B:--13-15----13-------15-13-15--------------------|
G:------------------------------12---13-12-15-17--|
D:------------------------------------------------|
A:------------------------------------------------|
E:------------------------------------------------|


Verso1 (ya cayó el telon..) (x2)
e:------------------------------------------------|(0:27)
B:------------------------------------------------|
G:--5--5--5--5---------------------------3--3--5--|
D:--5--5--5--5--5--5--5--5---6--6--5--5--3--3--5--|
A:--3--3--3--3--5--5--5--5---6--6--5--5--1--1--3--|
E:--------------3--3--3--3---4--4--3--3-----------|


Verso2 (y si lennin levantara..) (x2)
e:-----------------------------------------------|(0:40)
B:-----------------------------------------------|
G:--5--5--3--3--------------------------3--3--5--|
D:--5--5--3--3--6--6--5--5--6--6--5--5--3--3--5--|
A:--3--3--1--1--6--6--5--5--6--6--5--5--1--1--3--|
E:--------------4--4--3--3--4--4--3--3-----------|
  

Sin guitarra (mas de un siglo de lucha..)


Verso3 (mas de un siglo..) (con distorsion i muy rapido) (x2)
e:------------------------------------------------|(1:06)
B:------------------------------------------------|
G:--5--5--5--5---------------------------3--3--5--|
D:--5--5--5--5--5--5--5--5---6--6--5--5--3--3--5--|
A:--3--3--3--3--5--5--5--5---6--6--5--5--1--1--3--|
E:--------------3--3--3--3---4--4--3--3-----------|


Verso4 (y ahora ke tenemos democracia..) (x2)
e:--------------------------------------------------------------------------|(1:16)
B:--------------------------------------------------------------------------|
G:--5--5--5--3--3--3--------------------------------------3--3--3--5--5--5--|
D:--5--5--5--3--3--3--6--6--6--5--5--5--6--6--6--5--5--5--3--3--3--5--5--5--|
A:--3--3--3--1--1--1--6--6--6--5--5--5--6--6--6--5--5--5--1--1--1--3--3--3--|
E:--------------------4--4--4--3--3--3--4--4--4--3--3--3--------------------|


Guitarra (x2)
e:-------------------------------------------------|(1:26)
B:-------------------------------------------------|
G:--8-8-8-7-7-7-5-5-5-4-4-4-5-5-5-4-4-4-7-7-7-8-8--|
D:-------------------------------------------------|
A:-------------------------------------------------|
E:-------------------------------------------------|

[ Tab from: http://www.guitartabs.cc/tabs/b/boikot/korsakov_tab.html ]
Puente              (palm mute)
e:--8--6--7/8--|---------------|(1:37)
B:--8--6--7/8--|---------------|
G:--8--6--7/8--|--x-x-x-x-x-x--|
D:-------------|--x-x-x-x-x-x--|
A:-------------|--x-x-x-x-x-x--|
E:-------------|--x-x-x-x-x-x--|


Verso5 (no llevaré ninguna..) (x2)
e:------------------------------------------------|(1:42)
B:------------------------------------------------|
G:--5--5--5--5---------------------------3--3--5--|
D:--5--5--5--5--5--5--5--5---6--6--5--5--3--3--5--|
A:--3--3--3--3--5--5--5--5---6--6--5--5--1--1--3--|
E:--------------3--3--3--3---4--4--3--3-----------|


Verso6 (y ahora ke tenemos democracia..) (rapido i distorsion) (x2)
e:-----------------------------------------------|(1:52)
B:-----------------------------------------------|
G:--5--5--3--3--------------------------3--3--5--|
D:--5--5--3--3--6--6--5--5--6--6--5--5--3--3--5--|
A:--3--3--1--1--6--6--5--5--6--6--5--5--1--1--3--|
E:--------------4--4--3--3--4--4--3--3-----------|


Antes y durante el solo (palm mute)
e:-------------------------------------------------------|(2:02)
B:-------------------------------------------------------|
G:--5--3/4--5-5-5-5-5-------------------------------3-3--|
D:--5--3/4--5-5-5-5-5--5-5-5-5-5--6-6-6-6-6--3-3-3--3-3--|
A:--3--1/2--3-3-3-3-3--5-5-5-5-5--6-6-6-6-6--3-3-3--1-1--|
E:---------------------3-3-3-3-3--4-4-4-4-4--1-1-1-------|
  

Antes del solo
e:------------------------------------------------------------------|(2:10)
B:------------------------------------------------------------------|
G:------------------------------------------------------------------|
D:------------------------------------------------------------------|
A:--6--5--3--3--2--2/6--6--6/8--8--8/10--10--10/13--13--13/15--15---|
E:------------------------------------------------------------------|  


Solo3
e:--------11----11-11------------------11-13----13-13-11--------|(2:20)
B:--13-15----13-------15-13-15------15-------15----------15-13--|
G:------------------------------12------------------------------|
D:--------------------------------------------------------------|
A:--------------------------------------------------------------|
E:--------------------------------------------------------------|
  
e:---------------------------------------------------------------------|(2:24)
B:-----------13-11-13-11-----------------------------------------------|
G:----6-8/12-------------13-13-12-10-12----13-10-12--7-8-10-10-8-7-----|
D:--8-----------------------------------10-------------------------10--|
A:---------------------------------------------------------------------|
E:---------------------------------------------------------------------|

             |----------------------Tapping--------------------|
e:-------------------------------------------------------------|(2:29)
B:-----------13-11-------13-11-------13-11-------13-11---------|
G:----6-8/12-------11-12-------11-12-------11-12-------11-12b--|
D:--8----------------------------------------------------------|
A:-------------------------------------------------------------|
E:-------------------------------------------------------------|
  
  * (a toda ostia)
e:--------------------------------------------------|(2:32)
B:--------------------------------------------------|
G:--13*-13*-12*-10*-12*-12*-7*-8*-10*-10*-8*-7*-----|
D:----------------------------------------------10--|
A:--------------------------------------------------|
E:--------------------------------------------------|


Final (x2)
e:------------------------------------|-----------------------------|(2:35)
B:-----13-11-13-11--------------------|-----------------------------|
G:--12-------------13-13-12-10-12-----|--13-10-12-7-8-10-10-8-7-----|
D:--------------------------------10--|-------------------------10--|
A:------------------------------------|-----------------------------|
E:------------------------------------|-----------------------------|

Comments