Boehse Onkelz - Wir Ham Noch Lange Nicht Genung Chords & Tabs

 

Wir Ham Noch Lange Nicht Genung Chords & Tabs

Boehse Onkelz Chords & Tabs

Version: 1 Type: Tab 0 ratings
1 star 2 stars 3 stars 4 stars 5 stars
comments

Wir Ham Noch Lange Nicht Genung Tab

   
 
  einblenden<     INTRO
                    C               G                Am
|---------------|-----------------|----------------|----------------|
|---------------|----------6---5--|---------6---5--|----------------|
|---------------|--5-5-7-5---5---5|-5-5-7-5---5----|-----5---7---5--|
|-----2---------|-----------------|---------------5|-5-5---5---5---5|
|-----0---------|-----------------|----------------|----------------|
|---------------|-----------------|----------------|----------------|





  F
|----------------|
|-6---5-------5--|
|---------7------|
|---5---5---5---5|     6x
|----------------|
|----------------|


  STROPHE
   C                 G                   Am
|------------------|------------------|-------------------|
|------------------|------------------|-------------------|
|------------------|------------------|-------------------|
|--5-5-5-5-5-5-5-5-|------------------|-------------------| 
|--3-3-3-3-3-3-3-3-|--5-5-5-5-5-5-5-5-|---7-7-7-7-7-7-7-7-|
|------------------|--3-3-3-3-3-3-3-3-|---5-5-5-5-5-5-5-5-|


   F                  C                   G
|------------------|--------------------|-------------------|
|------------------|--------------------|-------------------|
|------------------|--------------------|-------------------|
|------------------|--5-5-5--5--5-5-5-5-|-------------------|
|--3-3-3-3-3-3-3-3-|--3-3-3--3--3-3-3-3-|--5-5-5-5-5-5-5-5--|
|--1-1-1-1-1-1-1-1-|--------------------|--3-3-3-3-3-3-3-3--|

[ Tab from: http://www.guitartabs.cc/tabs/b/boehse_onkelz/wir_ham_noch_lange_nicht_genung_tab.html ]
  F
|------------------|
|------------------|
|------------------|
|------------------|     3x dann Interlude                
|--3-3-3-3-3-3-3-3-| 
|--1-1-1-1-1-1-1-1-|
                                              __________________
INTERLUDE                                     |1.               |
  Am              C                Dm           F
|---------------|---------------|-------------|-1--1------------|
|--------6-5----|--------6-5----|------6-5----|-1--1---6--5-----|
|--------5-5-7--|--0-0---5-5-7--|--2-2-5-5-7--|--------5--5---7-|
|--2-2-------7--|------------7--|--0-0-----7--|-3--3----------7-|
|--0-0----------|--3-3----------|-------------|-----------------|
|---------------|---------------|-------------|-----------------|
 ____________________
|2. 
  F        G           Am                        G
|--------------------|------------------|-------------------|
|---6---6------------|------------------|-------------------|
|---5---5------------|------------------|-------------------|
|---3---3------------|--2-2-2-2-2-2-2-2-|2-2-2-2------------|
|---------2-----3----|--0-0-0-0-0-0-0-0-|0-0-0-0-2---3------|
|------------3-----3-|------------------|----------3---3----|



|------------------|--------------------|
|------------------|--------------------|
|------------------|--------------------|  
|--2-2-2-2-2-2-2-2-|2-2-2-2-2-2-2-2-----|     ---> Strophe
|--0-0-0-0-0-0-0-0-|0-0-0-0-0-0-0-0-----|
|------------------|--------------------|


es is jetzt halb drei nachts, s solo gibtz n ander mal.

phil
Comments