Boehse Onkelz - Nichts Ist Fur Die Ewigkeit Chords & Tabs

 

Nichts Ist Fur Die Ewigkeit Chords & Tabs

Boehse Onkelz Chords & Tabs

Version: 1 Type: Tab 0 ratings
1 star 2 stars 3 stars 4 stars 5 stars
comments

Nichts Ist Fur Die Ewigkeit Tab

   
Band: Böhse Onkelz 
Song: Nichts ist für die Ewigkeit 
tabbed by: Michael Wehling

Intro: (Am Besten mit 12 Saitiger Gitarre im Clean-Chorus Modus); maybe with a 12 string guitar in clean mode


E|--0---0---0---0---0---0---0---0-|--0---0---0---0---0---0---0---0--| 
B|----0---------------0-----------|----0---------------0------------| 
G|--------0---------------0-------|--------0---------------0--------| 
D|------------4---------------4---|------------4---------------4----| 
A|7---------------7---------------|5---------------5----------------| 
E|--------------------------------|---------------------------------| 

Bassbegleitung:
G|------------------------------------------------------------------| 
D|------------------------------------------------------------------| 
A|-7-7-7-7-7-7-7-7-7-7-7-7-7-7-7-7--5-5-5-5-5-5-5-5-5-5-5-5-5-5-5-5-| 
E|------------------------------------------------------------------| 

Gitarre:
E|--0---0---0---0---0---0---0---0-|--0---0----0---0---0---0---0---0-| 
B|----0---------------0-----------|----0----------------0-----------| 
G|--------0---------------0-------|--------0----------------0-------| 
D|------------2---------------2---|-------------4---------------4---| 
A|3---------------3---------------|5----------------5---------------| 
E|--------------------------------|---------------------------------| 

Bassbegleitung:
G|------------------------------------------------------------------| 
D|------------------------------------------------------------------| 
A|-3-3-3-3-3-3-3-3-3-3-3-3-3-3-3-3-5-5-5-5-5-5-5-5-5-5-5-5-5-5-5-5-5| 
E|------------------------------------------------------------------| 

Verse = Intro
ab "Der Schatten im Verstand..." folgendes spielen
  Der Schatten im Verstand...
E|--0---0---0---0---0---0---0---0-|--0---0----0---0---0---0---0---0-| 
B|----0---------------0-----------|----0----------------0-----------| 
G|--------0---------------0-------|--------0----------------0-------| 
D|------------2---------------2---|-------------2---------------2---| 
A|3---------------3---------------|2----------------2---------------| 
E|--------------------------------|---------------------------------| 

Bassbegleitung
G|-------------------------------------------------------------------| 
D|-------------------------------------------------------------------| 
A|-3-3-3-3-3-3-3-3-3-3-3-3-3-3-3-3-2-2-2-2-2-2-2-2-2-2-2-2-2-2-2-2-2-| 
E|-------------------------------------------------------------------| 

Übergang auf Chorus:
Gitarre:
e|-----------------------------------------------------------------------| 
B|-----------------------------------------------------------------------| 
G|---0---0---0---0---0---0---0---0--------0---0---0---0---0---0----------| 
D|-----2-------2-------2--------------------2-------2--------------------| 
A|-----------------3-------5---3------------------------5---3------------| 
E|-0--------3---------------------------0-------3------------------------| 

Bassbegleitung:
G|-----------------------------------------------------------------------| 
D|-----------------------------------------------------------------------| 
A|-----------------2-3----0-2----0-----------------------2-3-----0-2---0-| 
E|-0------2-3----------------------------0-------2-3---------------------| 

Gitarre:
e|-----------------------------------------------------------------------| 
B|---0---0---0---0---0---0---0---0------0---0---0---0---0---0---0---0----| 
G|-----0-------0-------0------------------0-------0-------0--------------| 
D|-----------------------------------------------------------------------| 
A|-----------------3-------5---3----------------------3-------5---3------| 
E|-0-------3--------------------------0-------3--------------------------| 

Bassbegleitung:
G|-----------------------------------------------------------------------| 
D|-----------------------------------------------------------------------| 
A|-----------------2-3----0-2----0-----------------------2-3-----0-2---0-| 
E|-0------2-3----------------------------0-------2-3---------------------| 

[ Tab from: http://www.guitartabs.cc/tabs/b/boehse_onkelz/nichts_ist_fur_die_ewigkeit_tab.html ]
Chorus: Em G A C
        Em G A - A H C
Bass: die gleichen Noten	              


Solo 
Gitarre: 
e|--------------------------------------------------------------------|  
B|------------8-7---7-8-7-7-------------------------------------------| 
G|-----9-7-9------9---------9-7--9-7------------7-9-7--------7-9-7----| 
D|-7-9-------------------------------9-7-9--7-9-------9--7-9-------9--| 
A|--------------------------------------------------------------------| 
E|--------------------------------------------------------------------| 

Bassbegleitung:
G|--------------------------------------------------------------------| 
D|--------------------------------------------------------------------| 
A|-7-7-7-7-7-5-5-5-5-5-5-3-3-3-3-3-5-5-5-5--7-7-7-7-7-7-5-5-5-5-5-5---| 
E|--------------------------------------------------------------------| 

Gitarre:
e|--------------------------------------------------------------------| 
B|-----7---7-8-7-8-10-8-7-8----10-8-7-8-7-----------------------------| 
G|-7-9---9------------------------------------------------------------| 
D|--------------------------------------------------------------------| 
A|--------------------------------------------------------------------| 
E|--------------------------------------------------------------------| 

Bassbegleitung:
G|--------------------------------------------------------------------| 
D|--------------------------------------------------------------------| 
A|-3-3-3-3-3-3-3-3-3-3-3-3-3--5-5-5-5-5-5-5---------------------------| 
E|--------------------------------------------------------------------| 

Gitarre:
e|-12-10-----12-10-----12-10---------| 
B|-------12--------12--------12-10---| 
G|---------------------------------12| 
D|-----------------------------------| 
A|-----------------------------------| 
E|-----------------------------------| 

Bassbegleitung:
G|-----------------------------------| 
D|-----------------------------------| 
A|-7-7-7-7-7-7-7-7-7-7-5-5-5-5-5-5-5-| 
E|-----------------------------------| 

Gitarre:
e|--------------------------------------------------------------------|  
B|--------------10-10-----------------------10------------------------| 
G|-12-9-11-9-11-------12-12-11-11--12-11-12----12-11-12-11-9-11-------| 
D|--------------------------------------------------------------------| 
A|--------------------------------------------------------------------| 
E|--------------------------------------------------------------------| 

Bassbegleitung:
G|--------------------------------------------------------------------| 
D|--------------------------------------------------------------------| 
A|-5-3-3-3-3-3-5-5-5-5-5-5-5-5-5-5-7-7-7-7-7-7-7-7-7-7-5-5-5-5-5------| 
E|--------------------------------------------------------------------| 

Gitarre:
e|--------------------------------------------------------------------|  
B|-----------10-------12----------------------------------------------| 
G|--12-11-12----12-11-------------------------------------------------| 
D|--------------------------------------------------------------------| 
A|--------------------------------------------------------------------| 
E|--------------------------------------------------------------------| 
  
Bassbegleitung:
G|--------------------------------------------------------------------| 
D|--------------------------------------------------------------------| 
A|-3-3-3-3-3-5-5-5-5-5-5----------------------------------------------| 
E|--------------------------------------------------------------------| 

2. Solo (2 mal)

Gitarre:
e|--------------------------------------------------------------------|  
B|-0-5-7-8-7-5-3-5--0-5-7-8-7-5-----0-5-7-8-7-5-3-55-88-77-5-3-5---3-5| 
G|------------------------------5-------------------------------------| 
D|--------------------------------------------------------------------| 
A|--------------------------------------------------------------------| 
E|--------------------------------------------------------------------| 

Bassbegleitung:
G|--------------------------------------------------------------------| 
D|--------------------------------------------------------------------| 
A|-7-7-7-7-7-7-7-7-7-7-7-7-7-7--3-3-3-3-3-3-3--5-5-5-5-5-5-7-7-7-7-7-7| 
E|--------------------------------------------------------------------|
Comments