Boehse Onkelz - Mexico Chords & Tabs

 

Mexico Chords & Tabs

Boehse Onkelz Chords & Tabs

Version: 1 Type: Tab

Mexico Tab

   
BÖHSE ONKELZ - MEXICO
Tabbed By Beamer

Intro Riff

E----------------------------------------------------|
H----------------------------------------------------|
G---9--7-7--7-12-11-9-11----9--7-7--7-12-11--14------|
D----------------------------------------------------|
A---7--5-5--5-10--9-7--9----7--5-5--5-10--9--12------|
E----------------------------------------------------|

E----------------------------------------------------|
H----------------------------------------------------|
G---9--7-7--7-12-11-9-11----9--7-7--7-12-11--14------|
D----------------------------------------------------|
A---7--5-5--5-10--9-7--9----7--5-5--5-10--9--12------|
E----------------------------------------------------|


Verse 1
D                             A
Mit 'nem Sombrero auf und Doc Martens an,
   D              A
so geht die Reise los,
     D            A
nach Mexico, auch ohne Geld,
       Hm
wenn's sein muß, mit 'nem Floß.

    D               A
Und wenn wir drüben sind,
     D                   A
dann wird's erst richtig schön,
    D                               Hm  E  A
wir werden uns're Mannschaft wieder siegen seh'n.


Chorus
         A        E      F#m    E  D    E
Mit Senioritas im Arm, Tequilla lauwarm,
    A           E             D   C#m   Hm    E
vom Durchfall geplagt und von Fliegen gejagt.
   A           E            F#m           E
Im Land der Kakteen, werden wir, Du wirst sehen,
       D            E           A    E  A
wieder Weltmeister, Weltmeister sein.


Intro Riff

[ Tab from: http://www.guitartabs.cc/tabs/b/boehse_onkelz/mexico_tab.html ]
Strophe 2
D                  A
Siegesgewiß fahren wir nach Mexico
   D             A
um unsere Elf zu seh'n.
   D                    A
Im Siegesrausch, voller Alkohol,
       Hm
lassen wir die Fahnen weh'n.

D                  A
Durst und Schweiß, heißt der Preis,
      D          A
um Triumpfe zu erleben,
D                                     Hm   E         A
kann es denn was schöneres geben, als Weltmeister zu sein


1x Refrain


"Und jetzt kommt die Stelle zum Tanzen....."

E----------------------------------------------------|
H----------------------------------------------------|
G----------------------------------------------------|
D----------------------------------------------------|
A-----4-5-------------4-5-------------4-5-7-7-7-7-7--|
E---7-----5-5-5-5-5-7-----5-5-5-5-5-7----------------|

E----------------------------------------------------|
H----------------------------------------------------|
G----------------------------------------------------|
D----------------------------------------------------|
A--5-4---------------4-5-------------4-5-------------|
E------7-5-5-5-5-5-7-----5-5-5-5-5-7-----5-5-5-5-5-7-|

E----------------------------------------------------|
H----------------------------------------------------|
G----------------------------------------------------|
D----------------------------------------------------|
A--4-5-7-7-7-7-7-5-4---------------------------------|
E--------------------7-5-5-5-5-5-5-5-5---------------|

E----------------------------------------------------|
H----------------------------------------------------|
G--7-------------6-------------7-------------4-------|
D--7-------------6-----7-------7-------------4-------|
A--5-5-5-5-5-5-5-4-4-4-7-------5-5-5-5-5-5-5-6-4-4---|
E----------------------5-5-5-5-----------------------|

E----------------------------------------------------|
H----------------------------------------------------|
G-----------7-------------6-----7-------9--7---------|
D--7--------7-------------6-----7-------9--7--7------|
A--7--------5-5-5-5-5-5-5-4-4-4-5-5-5-5-7--5--7------|
E--5-5-5-5------------------------------------5------|


1x Chorus
1x Verse 1
1x Chorus