Boehse Onkelz - Ich Bin In Dir Chords & Tabs

 

Ich Bin In Dir Chords & Tabs

Boehse Onkelz Chords & Tabs

Version: 1 Type: Tab 0 ratings
1 star 2 stars 3 stars 4 stars 5 stars
comments

Ich Bin In Dir Tab


Artist    : Böse Onkelz
song      : Ich bin in Dir
tabbed by : Christian Strowitzki
tuning    : standart



intro/verse - acoustic guitar
-----------------------------------------
------------0----------------------------
----------0---0--------------------------
--------2-------2--------0--------0------
------2-----------2----0---0----0---0----
----0----------------3--------2----------

chorus
-------------------------------------------------------------------------
------0--------0---0----0--------0---0---------------------------0-------
--------0--------0--------0--------0--------0--------0---------0---0-----
----2-----2--2--------0-----0--0----------2---2----4---4-----2-------2--- 2x then
----------------------------------------3--------5---------2-----------2-
---------------------------------------------------------0---------------
 
--------------------------------------------------------------0----
------0---0---0---0-------------------0---0---0---0-----------0----
--------0-------0-----------------------0-------0-------------0----
----------------------0---0-----2----------------------0---0--2----
----3-------2-----------------2------3-------2----------------2----
--------------------3---2---0------------------------3---2----0----

solo 1
-------------------------10---------------------------------12-10-----------------------
----------------8--10b12----12r10-8-----15b17r15p12-17-17---------12-10-10b12r10p8------
------------7-9----------------------9---------------------------------------------9----
------5-7/9-----------------------------------------------------------------------------
----7-----------------------------------------------------------------------------------
----------------------------------------------------------------------------------------

-------------------------------------------------------------------
-----------8b-------------------------------------------8b9r8------
-------7-9----9-7-----------------------------------7-9-------9----
----/9------------9-7-5-5---------------------5-7/9----------------
-----------------------------5-7/-----------7----------------------
---------------------------7-------x-x-x---------------------------

fill 1
---------------------
---------------------
----9-9-9------------
----------9-7-5------
----------------7----
---------------------

fill
----14-15/------------------
------------12-10-----------
------------------9-12-9----
----------------------------
----------------------------
----------------------------

solo 2
---------------------------------------------------------------------------
-----------------------12-10-----------------------------------------------
-----------------------------12-9-12-9-7-9-7-------------------------------
---------------------------------------------9-----------------------------
----12/--7-9--10-9-12--------------------------10-/7--7--9--10-9-/14-14----
---------------------------------------------------------------------------
[ Tab from: http://www.guitartabs.cc/tabs/b/boehse_onkelz/ich_bin_in_dir_tab.html ]
--------------------------------------------------------------------------
----15b17r15p12--15b17-15-14-12-11--12-12/--------------------------------
--------------------------------------------9-9-9-11-11-11-9-9-9-7-9-9----
--------------------------------------------------------------------------
--------------------------------------------------------------------------
--------------------------------------------------------------------------

------------------------------------------------------------------------------
-----x-x-10b12r11b12r10p8---8--10b12r11r10b12---------------------------------
-----x-x------------------9---------------------9-9-9-11-11-11-9-9-7-7-9-9----
------------------------------------------------------------------------------
------------------------------------------------------------------------------
------------------------------------------------------------------------------

-------------------------------------------
-------------------------------------------
-------------------------------------------
----7b9-7----------------------------------
----------10-7-10-7-5-7/8-7-5--------------
------------------------------7-5-3b5-0----


solo 3
----------------------------------------------------------------------------------------
----------------15b17r15--15b17r15----------15b17r15------------------------------------
-----------------------------------------------------14----14-12---------11-9-----------
-------------14--------------------------14---------------x-------14--12----------------
----14/--------------------------------------------------x--------------------9h10-7----
---------12--------------------------12-------------------------------------------------

------------------------------------------------------------------------------------
--------------------------------------17-15b17--15h17p15p12-17-17-15h17p15p12-17----
----------------12-12b----12-14-16-16-----------------------------------------------
----------12-14--------14-----------------------------------------------------------
----12/14---------------------------------------------------------------------------
------------------------------------------------------------------------------------

last verse - electric guitar  4x
-----------------
-----------------
-----------------
----2----5--4----
----2----5--4----
----0----3--2----



Hörst Du diese Lieder?
Böhse Onkelz immer wieder
Sie sind ein Teil von meinem Leben
sie sind ein Teil von mir
sie sind für Dich, ich schenk sie Dir
Mehr kann und will ich Dir nicht geben                           
Weißt Du wirklich, wer ich bin, wie ich denke, wie ich fühle?
Liebst Du mich, weil ich es bin, oder weil ich Dich belüge?
Du bist in mir - wohin ich geh, doch siehst Du auch, das was ich seh ?

Ich seh mich an und frag mich
ich seh mich an und frag mich, warum
Warum bin ich, wie ich bin?
Warum lach ich, wenn ich traurig bin
kann ich sehen oder bin ich blind?
Ich such die Antwort auf meine Fragen
Die Gedanken malen Bilder, doch ich finde keinen Rahmen
Der Wind spricht zu mir, er wünscht mir Glück, er flüstert meinen Namen. Er sagt:
Ich bin in dir - wohin ich geh, doch siehst Du auch, das was ich seh ?

Die Gedanken malen Bilder, doch ich finde keinen Rahmen
Der Wind spricht zu mir, er wünscht mir Glück, er flüstert meinen Namen. Er sagt:
Ich bin in dir - wohin ich geh, doch siehst Du auch, das was ich seh ?

Ich warte auf ein Zeichen,
ich warte auf ein Zeichen von Dir,
ich such die Anwort auf meine Fragen
Comments