Boehse Onkelz - Die Firma Chords & Tabs

 

Die Firma Chords & Tabs

Boehse Onkelz Chords & Tabs

Version: 2 Type: Tab

Die Firma Tab

INTRO ( HEY HEY )
|-----------------------------------------------------------------|
|-----------------------------------------------------------------|
|----9-4----------------------------------------------------------|
|--6-9-4-4--------------------------------------------------------| 
|--6-7-2-4--------------------------------------------------------|
|--4-----2--------------------------------------------------------|

Ein Spiel mit Worten, am Rande der Zensur. Nach Art des Hauses, in Reinkultur
|-----------------------------------------------------------------|
|-----------------------------------------------------------------|
|-----------------------------------------------------------------| 
|-----------------------------------------------------------------|
|-----------------7-7-7-7-7-7-7-7-4-4-4-4-4-4-4-4-4-4-4-4-4-4-4-4-|
|-4-4-4-4-4-4-4-4-------------------------------------------------|

Wir sind die Faust in deinem Nacken, die Wut in deinem Bauch…             
|-----------------------------------------------------------------|
|-----------------------------------------------------------------|
|----9-6----------------------------------------------------------| 
|--6-9-6----------------------------------------------------------|
|--6-7-4----------------------------------------------------------|
|--4--------------------------------------------------------------|

[ Tab from: http://www.guitartabs.cc/tabs/b/boehse_onkelz/die_firma_tab_ver_2.html ]
Komm mit uns und sei Gewiss, dass wir wissen, was wirklich böse ist
|-----------------------------------------------------------------|
|-----------------------------------------------------------------|
|----9-6----------------------------------------------------------|
|--6-9-6-6--------------------------------------------------------|
|--6-7-4-6--------------------------------------------------------|
|--4-----4--------------------------------------------------------|


Die härteste Firma in der Stadt, hat euch etwas mitgebracht…
|-----------------------------------------------------------------|
|-----------------------------------------------------------------|
|----9-4----------------------------------------------------------|
|--6-9-4-4--------------------------------------------------------|
|--6-7-2-4--------------------------------------------------------|
|--4-----2--------------------------------------------------------|


Halten wir fest: wir sind besser als der Rest 
|-------------------------------------------------------------------|
|-------------------------------------------------------------------|
|--1----------------------------------------------------------------|
|--2-4--------------------------------------------------------------|
|--2-4--------------------------------------------------------------|
|----2--------------------------------------------------------------|