Boehse Onkelz - Der Nette Mann Chords & Tabs

 

Der Nette Mann Chords & Tabs

Boehse Onkelz Chords & Tabs

Version: 1 Type: Tab 0 ratings
1 star 2 stars 3 stars 4 stars 5 stars
comments

Der Nette Mann Tab

() = you don't have to play in any case
x = palm mute

INTRO:
e----------------------------------------------------------------------------------------------------------|
h----------------------------------------------------------------------------------------------------------|
g--8---5----7---x---x----7---x----7---7---7----8---7---5----7---x---x----7---x----7---7---7----8---7---5---|
d--8---5----7---x---x----7---x----7---7---7----8---7---5----7---x---x----7---x----7---7---7----8---7---5---|
a--6---3----5---x---x----5---x----5---5---5----6---5---3----5---x---x----5---x----5---5---5----6---5---3---|
E-(6)-(3)--(5)-(x)-(x)--(5)-(x)--(5)-(5)-(5)--(6)-(5)-(3)--(5)-(x)-(x)--(5)-(x)--(5)-(5)-(5)--(6)-(5)-(3)--|
[ Tab from: http://www.guitartabs.cc/tabs/b/boehse_onkelz/der_nette_mann_tab.html ]
VERSE:
Part I:
e--------------------------------------------------------------------------------------------------|
h--------------------------------------------------------------------------------------------------|
g---7---x---x----7---x----7---7---7----8---7---5----7---x---x----7---x----7---7---7----8---7---5---|
d---7---x---x----7---x----7---7---7----8---7---5----7---x---x----7---x----7---7---7----8---7---5---|
a---5---x---x----5---x----5---5---5----6---5---3----5---x---x----5---x----5---5---5----6---5---3---|
E--(5)-(x)-(x)--(5)-(x)--(5)-(5)-(5)--(6)-(5)-(3)--(5)-(x)-(x)--(5)-(x)--(5)-(5)-(5)--(6)-(5)-(3)--|

Part II:
e-----------------------------------------------------------------|
h-----------------------------------------------------------------|
g--7---7----5---5---5----5---5----5---5---5----8---7---5----------|
d--7---7----5---5---5----5---5----5---5---5----8---7---5----------|
a--5---5----3---3---3----3---3----3---3---3----6---5---3----------|
E-(5)-(5)--(3)-(3)-(3)--(3)-(3)--(3)-(3)-(3)--(6)-(5)-(3)---------|

CHORUS:
e-----------------------------------------------------------------------------------|
h-----------------------------------------------------------------------------------|
g--5----7---7---7---7----5---5---5----7---7---7---7---7---7---7----5---5---5----7---|
d--5----7---7---7---7----5---5---5----7---7---7---7---7---7---7----5---5---5----7---|
a--3----5---5---5---5----3---3---3----5---5---5---5---5---5---5----3---3---3----5---|
E-(3)--(5)-(5)-(5)-(5)--(3)-(3)-(3)--(5)-(5)-(5)-(5)-(5)-(5)-(5)--(3)-(3)-(3)--(5)--|

OUTRO:
e----------------------|
h----------------------|
g--10---7---5---7------|
d--10---7---5---7------|
a--8----5---3---5------|
E-(8)--(5)-(3)-(5)-----|
Comments