Boehse Onkelz - 28 Chords & Tabs

 

28 Chords & Tabs

Boehse Onkelz Chords & Tabs

Version: 1 Type: Tab 0 ratings
1 star 2 stars 3 stars 4 stars 5 stars
comments

28 Tab

   
e-guitar: "clean" & "flanger"
E|---------0---------------0---------------7---------------7------------------|
B|---1-0-1---1-0-1---1-0-1---1-0-1---8-7-8---8-7-8---8-7-8---8-7-8------------|
G|-2---------------2---------------9---------------9--------------------------|
D|----------------------------------------------------------------------------|
A|----------------------------------------------------------------------------|
E|----------------------------------------------------------------------------|
 |                                                                            |
 |                                                                            |
E|---------3---------------3---------------7---------------7------------------|
B|---4-3-4---4-3-4---4-3-4---4-3-4---8-7-8---8-7-8---8-7-8---8-7-8------------|
G|-5---------------5---------------9---------------9--------------------------|
D|----------------------------------------------------------------------------|
A|----------------------------------------------------------------------------|
E|----------------------------------------------------------------------------|
 |                                                                            |
 |                                                                            |
E|---------0---------------0---------------7---------------7------------------|
B|---1-0-1---1-0-1---1-0-1---1-0-1---8-7-8---8-7-8---8-7-8---8-7-8------------|
G|-2---------------2---------------9---------------9--------------------------|
D|----------------------------------------------------------------------------|
A|----------------------------------------------------------------------------|
E|----------------------------------------------------------------------------|
 |                                                                            |
 |                                                                            |
E|---------3---------------3---------------7---------------7------------------|
B|---4-3-4---4-3-4---4-3-4---4-3-4---8-7-8---8-7-8---8-7-8---8-7-8------------|
G|-5---------------5---------------9---------------9--------------------------|
D|----------------------------------------------------------------------------|
A|----------------------------------------------------------------------------|
E|----------------------------------------------------------------------------|
 |                                                                            |
 |                                                                            |
E|---------0---------------0---------------7---------------7------------------|
B|---1-0-1---1-0-1---1-0-1---1-0-1---8-7-8---8-7-8---8-7-8---8-7-8------------|
G|-2---------------2---------------9---------------9--------------------------|
D|----------------------------------------------------------------------------|
A|----------------------------------------------------------------------------|
E|----------------------------------------------------------------------------|
 |                                                                            |
 |                                                                            |
E|---------3---------------3---------------7---------------7------------------|
B|---4-3-4---4-3-4---4-3-4---4-3-4---8-7-8---8-7-8---8-7-8---8-7-8------------|
G|-5---------------5---------------9---------------9--------------------------|
D|----------------------------------------------------------------------------|
A|----------------------------------------------------------------------------|
E|----------------------------------------------------------------------------|
 |                                                                            |
 |                                                                            |
E|-9--------9---------7-------7-------9---------9---------7-------7-----------|
B|--10-9-10---10-9-10---8-7-8---8-7-8---10-9-10---10-9-10---8-7-8---8-7-8-----|
G|----------------------------------------------------------------------------|
D|----------------------------------------------------------------------------|
A|----------------------------------------------------------------------------|
E|----------------------------------------------------------------------------|
 |                                                                            |
 |                                                                            |
E|-9--------9---------7-------7-------9---------9---------7-------7-----------|
B|--10-9-10---10-9-10---8-7-8---8-7-8---10-9-10---10-9-10---8-7-8---8-7-8-----|
G|----------------------------------------------------------------------------|
D|----------------------------------------------------------------------------|
A|----------------------------------------------------------------------------|
E|----------------------------------------------------------------------------|
 |                                                                            |
 |                                                                            |
E|---------0-----------0-------0-----------0-----------0-------0--------------|
B|---1-0-1---1-0-1---0---0---0---0---1-0-1---1-0-1---0---0---0---0------------|
G|-2---------------1-------1-------2---------------1-------1------------------|
D|----------------------------------------------------------------------------|
A|----------------------------------------------------------------------------|
E|----------------------------------------------------------------------------|
 |                                                                            |
 |                                                                            |
E|---------0-----------0-------0-----------0-----------0-------0--------0---0-|
B|---1-0-1---1-0-1---0---0---0---0---1-0-1---1-0-1---0---0---0---0----0---0-0-|
G|-2---------------1-------1-------2---------------1-------1--------1-------1-|
D|----------------------------------------------------------------------------|
A|----------------------------------------------------------------------------|
E|----------------------------------------------------------------------------|


e-guitar: "distortion"
E|------------------------------------------------------------------------------|
B|------------------------------------------------------------------------------|
G|-----------------------------------------4---------------4--------------------|
D|---------2---------------2-------2-5-4-5---5-4-5-2-5-4-5---5-4-5--------------|
A|-0-3-2-3---3-2-3-0-3-2-3---3-2-3----------------------------------------------|
E|------------------------------------------------------------------------------|
 |                                                                              |
 |                                                                              |
E|------------------------------------------------------7-7-7-------7-7-7-------|
B|------------------------------------------------------------8-8-8-------8-8-8-|
G|------------------------------------------------------------------------------|
D|---------5---------------5-----------------9----------------------------------|
A|-3-6-5-6---6-5-6-3-6-5-6---6-5-6-7-10-9-10---10-9-10--------------------------|
E|------------------------------------------------------------------------------|
 |                                                                              |
 |                                                                              |
E|------------------------------------------------------------------------------|
B|------------------------------------------------------------------------------|
G|-----------------------------------------4---------------4--------------------|
D|---------2---------------2-------2-5-4-5---5-4-5-2-5-4-5---5-4-5--------------|
A|-0-3-2-3---3-2-3-0-3-2-3---3-2-3----------------------------------------------|
E|------------------------------------------------------------------------------|
 |                                                                              |
 |                                                                              |
E|------------------------------------------------------------------------------|
B|------------------------------------------------------------------------------|
G|-----------------------------------------4---------------4--------------------|
D|---------5---------------5-------2-5-4-5---5-4-5-2-5-4-5---5-4-5--------------|
A|-3-6-5-6---6-5-6-3-6-5-6---6-5-6----------------------------------------------|
E|------------------------------------------------------------------------------|


e-guitar: "distortion" & "flanger"
E|------------------------------------------------------------------|
B|------------------------------------------------------------------|
G|------------------------------------------------------------------|
D|-2--2-2-2-2-2-2-10--10-9-7-6-5-4--2--2-2-2-2-2-2-10--10-9-7-6-5-4-|
A|-2--2-2-2-2-2-2-10--10-9-7-6-5-4--2--2-2-2-2-2-2-10--10-9-7-6-5-4-|
E|-0--0-0-0-0-0-0--8---8-7-5-4-3-2--0--0-0-0-0-0-0--8---8-7-5-4-3-2-|
 |                                                                  |
 |                                                                  |
E|------------------------------------------------------------------|
B|------------------------------------------------------------------|
G|------------------------------------------------------------------|
D|-2--2-2-2-2-2-2-10--10-9-7-6-5-4--2--2-2-2-2-2-2-10--10-9-7-6-5-4-|
A|-2--2-2-2-2-2-2-10--10-9-7-6-5-4--2--2-2-2-2-2-2-10--10-9-7-6-5-4-|
E|-0--0-0-0-0-0-0--8---8-7-5-4-3-2--0--0-0-0-0-0-0--8---8-7-5-4-3-2-|

[ Tab from: http://www.guitartabs.cc/tabs/b/boehse_onkelz/28_tab.html ]
e-guitar: "distortion
E|-----------------------------------------------------------------|
B|-----------------------------------------------------------------|
G|-----------------------------------------------------------------|
D|-----------------2-2-----------------------------2-2-------------|
A|-0-0-3-3-2-2-3-3-----3-3-2-2-3-3-0-0-3-3-2-2-3-3-----3-3-2-2-3-3-|
E|-----------------------------------------------------------------|
 |                                                                 |
 |                                                                 |
E|-----------------------------------------------------------------|
B|-----------------------------------------------------------------|
G|-----------------4-4-----------------------------4-4-------------|
D|-2-2-5-5-4-4-5-5-----5-5-4-4-5-5-2-2-5-5-4-4-5-5-----5-5-4-4-5-5-|
A|-----------------------------------------------------------------|
E|-----------------------------------------------------------------|
 |                                                                 |
 |                                                                 |
E|-----------------------------------------------------------------|
B|-----------------------------------------------------------------|
G|-----------------------------------------------------------------|
D|-----------------5-5-----------------------------5-5-------------|
A|-3-3-6-6-5-5-6-6-----6-6-5-5-6-6-3-3-6-6-5-5-6-6-----6-6-5-5-6-6-|
E|-----------------------------------------------------------------|
 |                                                                 |
 |                                                                 |
E|-----------------------------------------------------------------|
B|-----------------------------------------------------------------|
G|-----------------4-4-----------------------------4-4-------------|
D|-2-2-5-5-4-4-5-5-----5-5-4-4-5-5-2-2-5-5-4-4-5-5-----5-5-4-4-5-5-|
A|-----------------------------------------------------------------|
E|-----------------------------------------------------------------|
 |                                                                 |
 |                                                                 |
E|-----------------------------------------------------------------|
B|-----------------------------------------------------------------|
G|-----------------------------------------------------------------|
D|-----------------2-2-----------------------------2-2-------------|
A|-0-0-3-3-2-2-3-3-----3-3-2-2-3-3-0-0-3-3-2-2-3-3-----3-3-2-2-3-3-|
E|-----------------------------------------------------------------|
 |                                                                 |
 |                                                                 |
E|-----------------------------------------------------------------|
B|-----------------------------------------------------------------|
G|-----------------4-4-----------------------------4-4-------------|
D|-2-2-5-5-4-4-5-5-----5-5-4-4-5-5-2-2-5-5-4-4-5-5-----5-5-4-4-5-5-|
A|-----------------------------------------------------------------|
E|-----------------------------------------------------------------|
 |                                                                 |
 |                                                                 |
E|-----------------------------------------------------------------|
B|-----------------------------------------------------------------|
G|-----------------------------------------------------------------|
D|-----------------5-5-----------------------------5-5-------------|
A|-3-3-6-6-5-5-6-6-----6-6-5-5-6-6-3-3-6-6-5-5-6-6-----6-6-5-5-6-6-|
E|-----------------------------------------------------------------|
 |                                                                 |
 |                                                                 |
E|-----------------------------------------------------------------|
B|-----------------------------------------------------------------|
G|-----------------4-4-----------------------------4-4-------------|
D|-2-2-5-5-4-4-5-5-----5-5-4-4-5-5-2-2-5-5-4-4-5-5-----5-5-4-4-5-5-|
A|-----------------------------------------------------------------|
E|-----------------------------------------------------------------|


e-guitar: "distortion" & "flanger"
E|-------------------------------------------------------------------|
B|-------------------------------------------------------------------|
G|-------------------------------------------------------------------|
D|-2--2-2-2-2-2-2-10--10-9-7-6-5-4--2--2-2-2-2-2-2-10--10-9-7-6-5-4--|
A|-2--2-2-2-2-2-2-10--10-9-7-6-5-4--2--2-2-2-2-2-2-10--10-9-7-6-5-4--|
E|-0--0-0-0-0-0-0--8---8-7-5-4-3-2--0--0-0-0-0-0-0--8---8-7-5-4-3-2--|
 |                                                                   |
 |                                                                   |
E|-------------------------------------------------------------------|
B|-------------------------------------------------------------------|
G|-------------------------------------------------------------------|
D|-2--2-2-2-2-2-2-10--10-9-7-6-5-4--2--2-2-2-2-2-2-10--10-9-7-6-5-4--|
A|-2--2-2-2-2-2-2-10--10-9-7-6-5-4--2--2-2-2-2-2-2-10--10-9-7-6-5-4--|
E|-0--0-0-0-0-0-0--8---8-7-5-4-3-2--0--0-0-0-0-0-0--8---8-7-5-4-3-2--|
 |                                                                   |
 |                                                                   |
E|-------------------------------------------------------------------|
B|-------------------------------------------------------------------|
G|--------------------------5-4------------------------------5-4-----|
D|-2-2-2-2-2-2-2-2-2-2-2-2--5-4-5-4-2-2-2-2-2-2-2-2-2-2-2-2--5-4-5-4-|
A|-2-2-2-2-2-2-2-2-2-2-2-2--3-2-5-4-2-2-2-2-2-2-2-2-2-2-2-2--3-2-5-4-|
E|-0-0-0-0-0-0-0-0-0-0-0-0------3-2-0-0-0-0-0-0-0-0-0-0-0-0------3-2-|
 |                                                                   |
 |                                                                   |
E|-------------------------------------------------------------------|
B|-------------------------------------------------------------------|
G|--------------------------5-4------------------------------5-4-----|
D|-2-2-2-2-2-2-2-2-2-2-2-2--5-4-5-4-2-2-2-2-2-2-2-2-2-2-2-2--5-4-5-4-|
A|-2-2-2-2-2-2-2-2-2-2-2-2--3-2-5-4-2-2-2-2-2-2-2-2-2-2-2-2--3-2-5-4-|
E|-0-0-0-0-0-0-0-0-0-0-0-0------3-2-0-0-0-0-0-0-0-0-0-0-0-0------3-2-|


e-guitar: "distortion"
E|--------------------------------------|
B|--------------------------------------|
G|-------4~------4~------4~------4~-----|
D|-2~~---4~--5~--4~--5~--4~--5~--4~--5~-|
A|-2~~---2~--5~--2~--5~--2~--5~--2~--5~-|
E|-0~~-------3~------3~------3~------3~-|


e-guitar: "distortion"
E|---------------------------------------------------------------------------------------------|
B|---------------------------------------------------------------------------------------------|
G|------------11---------------------11---------------------11---------------------12-11-------|
D|-9-12-11-12----12-11-12-9-12-11-12----12-11-12-9-12-11-12----12-11-12-9-12-11-12-------12-11-|
A|---------------------------------------------------------------------------------------------|
E|---------------------------------------------------------------------------------------------|
 |  Der Bass spielt an dieser Stelle 2 Töne, darum klingt es so als ob die Guitar auch 2 Töne  |
 |  spielen würde... Dem ist aber nicht so! Kontrapunkt heißt das Ganze! ;-)                   |
E|---------------------------------------------------------------------------------------------|
B|---------------------------------------------------------------------------------------------|
G|------------11---------------------11---------------------11---------------------12-11-------|
D|-9-12-11-12----12-11-12-9-12-11-12----12-11-12-9-12-11-12----12-11-12-9-12-11-12-------12-11-|
A|---------------------------------------------------------------------------------------------|
E|---------------------------------------------------------------------------------------------|


e-guitar: "distortion"
E|-------------------------------------------------------------------------|
B|-------------------------------------------------------------------------|
G|-------------------------------------------------------------------------|
D|-------------------------------------------------------------------------|
A|-2~--2-4-5-7-5-4-2-----7-5-4-2~--2-4-5-7-5-4-2-----7-5-4-----------------|
E|-------------------3~--------------------------3~------------------------|
 |                                                                         |
 |                                                                         |
E|-------------------------------------------------------------------------|
B|-------------------------------------------------------------------------|
G|-------------------------------------------------------------------------|
D|-4~--5-4-2-4~--5-4-2-4~--5-4-2-0~--2-0-----------------------------------|
A|---------------------------------------4-2---2---2---2---2---2---2---2---|
E|-------------------------------------------3---3---3---3---3---3---3---3-|
 |                                                                         |
 |                                                                         |
E|-------------------------------------------------------------------------|
B|-------------------------------------------------------------------------|
G|-------------------------------------------------------------------------|
D|-------------------------------------------------------------------------|
A|-2--4--5--7--9--7--5--4--2~~~~~~-----------------------------------------|
E|-------------------------------------------------------------------------|
Comments