Bodyrockers - I Like The Way Chords & Tabs

 

I Like The Way Chords & Tabs

Bodyrockers Chords & Tabs

Version: 6 Type: Tab

I Like The Way Tab

   
-------------------------------------------------------------------------------
			     I LIKE THE WAY - Bodyrockers
-------------------------------------------------------------------------------

Tabbed by: David Phillips
Email: zantier@hotmail.com

| /  slide up
| \  slide down
| h  hammer-on
| p  pull-off
| ~  vibrato
| +  harmonic
| x  Mute note

listen to the song for rhythm, but I have spaced it in a way to give you the idea of it.

here's the main riff:


d|----------------|    |----------------|
A|----------------|    |----------------|
F|----------------|    |--7-----5-------|
C|--7-75---7------|x3  |--7-----5-------|x1
G|--7-75---7------|    |--5-----3-------|
D|--5-53---5------|    |----------------|

coming up to the verses, it begins to go:
[ Tab from: http://www.guitartabs.cc/tabs/b/bodyrockers/i_like_the_way_tab_ver_6.html ]
d|----------------|    |------------5---|    |----------------|
A|----------------|    |------------5---|    |----------------|
F|----------------|    |----------------|    |--7-------5-----|
C|--7-75---7------|x2  |--7-75---7------|x1  |--7-------5-----|x1
G|--7-75---7------|    |--7-75---7------|    |--5-------3-----|
D|--5-53---5------|    |--5-53---5------|    |----------------|

Straight before the verses it goes:

|----------------|    |----------------|----------------|
|----------------|    |----------------|----------------|
|--7-------5-----|    |--7-----7---7---|7---7-----------|
|--7-------5-----|x2  |--7-----7---7---|7---7-----------|
|--5-------3-----|    |--5-----5---5---|5---5-----------|
|----------------|    |----------------|----------------|


Then the verses go:

d|------------5---|----------------|------------5---|----------------|
A|------------5---|----------------|------------5---|----------------|
F|----------------|----------------|----------------|--7-----5-------|
C|--7-75---7------|--7-75---7------|--7-75---7------|--7-----5-------|
G|--7-75---7------|--7-75---7------|--7-75---7------|--5-----3-------|
D|--5-53---5------|--5-53---5------|--5-53---5------|----------------|