Bodyjar - You Say Chords & Tabs

 

You Say Chords & Tabs

Bodyjar Chords & Tabs

Version: 1 Type: Tab 0 ratings
1 star 2 stars 3 stars 4 stars 5 stars
comments

You Say Tab

Title: You Say
Band: Bodyjar
Intro
Guitar 1
e|---------------------------------------------------|
B|---5-6-5-6--5-5-5--8--5-5-5--6--5-5-5---|
G|---5-5-5-5--5-5-5--5--5-5-5--5--5-5-5---|
D|---------------------------------------------------|
A|---------------------------------------------------|
E|---------------------------------------------------|

Guitar 2
e|---------------------------|
B|---------------------------|
G|---------------------------|
D|---------------------------|
A|---7-7-7-7-7-7-7-7---|
E|---5-5-5-5-5-5-5-5---|

e|----------------------|
B|----------------------|
G|----------------------|
D|---7--7--7--7------|
A|----------------------|
E|---5--5--5--5------|

e|--------------------------------|
B|--------------------------------|
G|--------------------------------|
D|-------7-----7-----7---7-----|
A|---------------------------------|
E|---5-5---5-5---5-5--5-5----|

e|---------------------|
B|---------------------|
G|---------------------|
D|---9---7-------8---|
A|-----------9---------|
E|---------------------|

e|---------------------|
B|---------------------|
G|---------------------|
D|---9---7-------8---|
A|-----------9---------|
E|---------------------|

e|---------------------------------|
B|---------------------------------|
G|---------------------------------|
D|---10-10-10---9---5--7-----|
A|-----------------------7---------|
E|---------------------------------|
[ Tab from: http://www.guitartabs.cc/tabs/b/bodyjar/you_say_tab.html ]
e|------------------------------------------------------------|
B|------------------------------------------------------------|
G|------------------------------------------------------------|
D|-------7-----7-----7---7----7-7-7--10-10-10--9---|
A|------------------------------------8--8--8--7-----------|
E|---5-5---5-5---5-5--5-5-----5-5-5------------------|

Chorus
e|--------------------------------------------------------|
B|--------------------------------------------------------|
G|---9-10-9-10-9-9-9--12--9-9-9-10--9-9-9---|
D|---7--8-7--8-7-7-7--10--7-7-7--8--7-7-7-----|
A|---------------------------------------------------------|
E|--------------------------------------------------------|

Solo
e|-------------------------------------------------|
B|-------------------------------------------------|
G|---0-5-5-0-0-7-7-0-0-9-9-0-0-10-10---|
D|-------------------------------------------------|
A|-------------------------------------------------|
E|-------------------------------------------------|

e|------------------------------------------------------------------------------|
B|------------------------------------------------------------------------------|
G|---0-0-9-9-0-0-7-7-0-0-9-9-0-0-7-7-0-0------------------3-------|
D|----------------------------------------1-1--1-p0--1--3---0-1----------|
A|------------------------------------------------------------------------------|
E|------------------------------------------------------------------------------|
Comments