Bodyjar - Underwater Chords & Tabs

 

Underwater Chords & Tabs

Bodyjar Chords & Tabs

Version: 2 Type: Tab 0 ratings
1 star 2 stars 3 stars 4 stars 5 stars
comments

Underwater Tab

Bodjyar: Underwater

From their new album PLASTIC SKIES

Tabbed by Andrew N
[ Tab from: http://www.guitartabs.cc/tabs/b/bodyjar/underwater_tab_ver_2.html ]
Guitar 1
E---------------------------------------------------------------------------------------------------------
B---------------------------------------------------------------------------------------------------------
G---------------------------------------------------------------------------------------------------------
D---------5-8---------------5-8-----------------5------------------5-8---------------------------------
A---8-6---------------8-6-----------------8-6----8-6--6-6-8-----------------------------------------
E---------------------------------------------------------------------------------------------------------
Guitar 2
E---------------------------------------------------------------------------------------------------------
B---------------------------------------------------------------------------------------------------------
G--8-8-8-8-8-8-8---5-5-5-5-5-5-5-5----------------------------------------------------------------
D--8-8-8-8-8-8-8---5-5-5-5-5-5-5-5--4-4-4-4-4-4-4-4----6-6-6-6-6-6-6-6---------------------
A--6-6-6-6-6-6-6---3-3-3-3-3-3-3-3--4-4-4-4-4-4-4-4----6-6-6-6-6-6-6-6---------------------
E-------------------------------------------1-1-1-1-1-1-1-1----4-4-4-4-4-4-4-4---------------------

This is all you need for the song just listen.

If you have any complaints get stuffed.
Comments