Bodyjar - Running Out Of Time Chords & Tabs

 

Running Out Of Time Chords & Tabs

Bodyjar Chords & Tabs

Version: 2 Type: Bass Tab 0 ratings
1 star 2 stars 3 stars 4 stars 5 stars
comments

Running Out Of Time Bass Tab

   
FTH80:G D A E ; Generated by Fast Tab, do not erase
====================
>From            : Matt Fritz(Fritzy34@start.com.au)
Artist          : BodyJar
Bass Performance: Running Out Of Time
Strings: E ,A ,D ,G 


Intro & Fill                            
G -------------------------------------------------------------------------------
D --------------9--9--6--6-------------------------------------------------------
A --7--7--7--7-------------------------------------------------------------------
E --------------------------4--4--4--4--5--5--5--5-------------------------------
[ Tab from: http://www.guitartabs.cc/tabs/b/bodyjar/running_out_of_time_btab_ver_2.html ]
Verses
G -------------------------------------------------------------------------------
D -------------------------------------------------------------------------------
A -----7--7--7--7--7--7--7--7--4--4--4--4--4--4--4--4--5--5--5--5--3--3--3--3--2-
E -------------------------------------------------------------------------------
                                                                                    
G -------------------------------------------------------------------------------
D -------------------------------------------------------------------------------
A --2--2--2--3--3--3--3----------------------------------------------------------
E -------------------------------------------------------------------------------

Chours (i Think)                                                                 
G ---------------------------------------------------
D ---------------------------------------------------
A -----7--7--7--7--2--2--2--2--4--4--4--4--3--3--2--2
E ---------------------------------------------------
Comments