Bodyjar - Not The Same Chords & Tabs

 

Not The Same Chords & Tabs

Bodyjar Chords & Tabs

Version: 2 Type: Tab 0 ratings
1 star 2 stars 3 stars 4 stars 5 stars
comments

Not The Same Tab

   
#----------------------------------PLEASE NOTE---------------------------------#
#This file is the author's own work and represents their interpretation of the #
#song. You may only use this file for private study, scholarship, or research. #
#------------------------------------------------------------------------------#

                                  NOT THE SAME
                             As recorded by Bodyjar

Arranged by Rob Romaine
Transcribed by Rob

Gtr I (E A D G B E) - 'Distortion Guitar'
Gtr II (E A D G B E) - 'Distortion Guitar'

 4/4
  Gtr II
        W         +H     E
|-----------------------------|
|-----------------------------|
|------^9---------(9)----9----|
|------^9---------(9)----9----|
|------^7---------(7)----7----|
|-----------------------------|


   Intro
    Q=110
   4/4
    Gtr I
    E E E E E E E E  E  E  E  E  E  E  E  E  E  E  E  E  E  E  E  E E E E E E E E E
||-----------------------------------------------------------------------------------||
||o---------------------------------------------------------------------------------o||
||--9-9-9-9-9-9-9-9------------------------------------------------------------------||
||--9-9-9-9-9-9-9-9-10-10-10-10-10-10-10-10-11-11-11-11-11-11-11-11-7-7-7-7-7-7-7-7--||
||o-7-7-7-7-7-7-7-7-10-10-10-10-10-10-10-10-11-11-11-11-11-11-11-11-7-7-7-7-7-7-7-7-o||
||-------------------8--8--8--8--8--8--8--8--9--9--9--9--9--9--9--9-5-5-5-5-5-5-5-5--||
|
|   Gtr II
|   E E E E E E E E  E  E  E  E  E  E  E  E  E  E  E  E  E  E  E  E E E E E E E E E
||----------4-2------------------4--2--------------------4--2---------------4-2------||
||o-5-5-5-5-----5-4--5--5--5--5--------5--4--5--5--5--5--------5--4-5-5-5-5-----5-4-o||
||-----------------------------------------------------------------------------------||
||-----------------------------------------------------------------------------------||
||o---------------------------------------------------------------------------------o||
||-----------------------------------------------------------------------------------||

   Verse
    Gtr II
     E  E  E  E  E  E  E  E E E E E E E E E  E  E  E  E  E  E  E  E E E E E E E E E
||-----------------------------------------------------------------------------------||
||o---------------------------------------------------------------------------------o||
||-----------------------------------------------------------------------------------||
||--14-14-14-14-14-14-14-14-6-6-6-6-6-6-6-6-11-11-11-11-11-11-11-11-7-7-7-7-7-7-7-7--||
||o-14-14-14-14-14-14-14-14-6-6-6-6-6-6-6-6-11-11-11-11-11-11-11-11-7-7-7-7-7-7-7-7-o||
||--12-12-12-12-12-12-12-12-4-4-4-4-4-4-4-4--9--9--9--9--9--9--9--9-5-5-5-5-5-5-5-5--||


   Bridge
    Gtr I
     E  E  E  E  E  E  E  E E E E E E E E E
||-------------------------------------------||-|
||o-----------------------------------------o||-|
||-------------------------------------------||-|
||--11-11-11-11-10-10-10-10-4-4-4-4-4-4-4-4--||-|
||o-11-11-11-11-10-10-10-10-4-4-4-4-4-4-4-4-o||-|
||---9--9--9--9--8--8--8--8-2-2-2-2-2-2-2-2--||-|


   Chorus
    Gtr I
    Q     E E E E E E E E  E  E  E  E E E E E E E E E E E E E E E E E E E E
||---------------------------------------------------------------------------||
||o-------------------------------------------------------------------------o||
||----------------9-9-9-9-----------------------------9-9-9-9----------------||
||--9-----7-7-7-7-9-9-9-9-11-11-11-11-7-7-7-7-7-7-7-7-9-9-9-9-4-4-4-4-4-4-4--||
||o-9-----7-7-7-7-7-7-7-7-11-11-11-11-7-7-7-7-7-7-7-7-7-7-7-7-4-4-4-4-4-4-4-o||
||--7-----5-5-5-5----------9--9--9--9-5-5-5-5-5-5-5-5---------2-2-2-2-2-2-2--||
|
|   Gtr II
|   E +E  E E E E E E E E  E  E  E  E E E E E E E E E E E E E E E E E E E E
||------------4-2-------------------4-2-------------4-2-------------4-2------||
||o-5-(5)-5-5-----5-4-5-5--5--5--5------5-4-5-5-5-5-----5-4-5-5-5-5-----5-4-o||
||---------------------------------------------------------------------------||
||---------------------------------------------------------------------------||
||o-------------------------------------------------------------------------o||
||---------------------------------------------------------------------------||


  +Q
|------|
|------|
|------|
|-(4)--|
|-(4)--|
|-(2)--|
|
|------|
|------|
|------|
|------|
|------|
|------|


   Verse
    Gtr II
     E  E  E  E  E  E  E  E E E E E E E E E  E  E  E  E  E  E  E  E E E E E E E E E
||-----------------------------------------------------------------------------------||
||o---------------------------------------------------------------------------------o||
||-----------------------------------------------------------------------------------||
||--14-14-14-14-14-14-14-14-6-6-6-6-6-6-6-6-11-11-11-11-11-11-11-11-7-7-7-7-7-7-7-7--||
||o-14-14-14-14-14-14-14-14-6-6-6-6-6-6-6-6-11-11-11-11-11-11-11-11-7-7-7-7-7-7-7-7-o||
||--12-12-12-12-12-12-12-12-4-4-4-4-4-4-4-4--9--9--9--9--9--9--9--9-5-5-5-5-5-5-5-5--||


   Bridge
    Gtr I
     E  E  E  E  E  E  E  E E E E E E E E E
||-------------------------------------------||-|
||o-----------------------------------------o||-|
||-------------------------------------------||-|
||--11-11-11-11-10-10-10-10-4-4-4-4-4-4-4-4--||-|
||o-11-11-11-11-10-10-10-10-4-4-4-4-4-4-4-4-o||-|
||---9--9--9--9--8--8--8--8-2-2-2-2-2-2-2-2--||-|

[ Tab from: http://www.guitartabs.cc/tabs/b/bodyjar/not_the_same_tab_ver_2.html ]
   Chorus
    Gtr I
    Q     E E E E E E E E  E  E  E  E E E E E E E E E E E E E E E E E E E E
||---------------------------------------------------------------------------||
||o-------------------------------------------------------------------------o||
||----------------9-9-9-9-----------------------------9-9-9-9----------------||
||--9-----7-7-7-7-9-9-9-9-11-11-11-11-7-7-7-7-7-7-7-7-9-9-9-9-4-4-4-4-4-4-4--||
||o-9-----7-7-7-7-7-7-7-7-11-11-11-11-7-7-7-7-7-7-7-7-7-7-7-7-4-4-4-4-4-4-4-o||
||--7-----5-5-5-5----------9--9--9--9-5-5-5-5-5-5-5-5---------2-2-2-2-2-2-2--||
|
|   Gtr II
|   E +E  E E E E E E E E  E  E  E  E E E E E E E E E E E E E E E E E E E E
||------------4-2-------------------4-2-------------4-2-------------4-2------||
||o-5-(5)-5-5-----5-4-5-5--5--5--5------5-4-5-5-5-5-----5-4-5-5-5-5-----5-4-o||
||---------------------------------------------------------------------------||
||---------------------------------------------------------------------------||
||o-------------------------------------------------------------------------o||
||---------------------------------------------------------------------------||


  +Q
|------|
|------|
|------|
|-(4)--|
|-(4)--|
|-(2)--|
|
|------|
|------|
|------|
|------|
|------|
|------|


 Guitar Solo
  E E E E E E E E E E  E  E E E  E  E E E E E E E E E E E  E  E E E  E  E E E E E E E E
|---------------------------------------------------------------------------------------|
|---------------------------------------------------------------------------------------|
|---------------------------------------------------------------------------------------|
|-6-6-6-6-6-6-6-6-9-9--9--7-6-6--6--6-6-6-6-6-9-9-9-7-6-6--6--6-6-6--6--6-9-9-9-7-6-6-6-|
|-6-6-6-6-6-6-6-6-9-9--9--7-6-6--6--6-6-6-6-6-9-9-9-7-6-6--6--6-6-6--6--6-9-9-9-7-6-6-6-|
|-4-4-4-4-4-4-4-4-7-7--7--5-4-4--4--4-4-4-4-4-7-7-7-5-4-4--4--4-4-4--4--4-7-7-7-5-4-4-4-|
|
| E E E E E E E E E E  E  E E E  E  E E E E E E E E E E E  E  E E E  E  E E E E E E E E
|---------------------------------------------------------------------------------------|
|---------------------------------------------------------------------------------------|
|---------------------------------------------------------------------------------------|
|-6-6-6-6-6-6-6-6-9-9-11-14-9-9-11-14-6-6-6-6-6-6-6-6-9-9-11-14-9-9-11-14-6-6-6-6-6-6-6-|
|---------------------------------------------------------------------------------------|
|---------------------------------------------------------------------------------------|


  E E E  E  E E E  E  E E E E E E E E E E E  E  E E E  E  H          +Q
|------------------------------------------------------------------------------|
|------------------------------------------------------------------------------|
|------------------------------------------------------------------------------|
|-6-6-6--6--6-9-9--9--7-6-6-6-6-6-6-6-6-9-9--9--7-7-7--7--7----------(7)-------|
|-6-6-6--6--6-9-9--9--7-6-6-6-6-6-6-6-6-9-9--9--7-7-7--7--7----------(7)-------|
|-4-4-4--4--4-7-7--7--5-4-4-4-4-4-4-4-4-7-7--7--5-5-5--5--5----------(5)-------|
|
| E E E  E  E E E  E  E E E E E E E E E E E  E  E E E  E  E  E  E  E  E  E  E
|------------------------------------------------------------------------------|
|------------------------------------------------------------------------------|
|------------------------------------------------------------------------------|
|-6-9-9-11-14-9-9-11-14-6-6-6-6-6-6-6-6-9-9-11-14-9-9-11-14-14-14-14-11--9-11--|
|------------------------------------------------------------------------------|
|------------------------------------------------------------------------------|


   Bridge
    Gtr I
     PM-------------------------------------|
     E  E  E  E  E  E  E  E   E E E E E E E E
||--------------------------|------------------||-|
||o-------------------------|-----------------o||-|
||--------------------------|------------------||-|
||--11-11-11-11-10-10-10-10-|-4-4-4-4-4-4-4-4--||-|
||o-11-11-11-11-10-10-10-10-|-4-4-4-4-4-4-4-4-o||-|
||---9--9--9--9--8--8--8--8-|-2-2-2-2-2-2-2-2--||-|


   Chorus
     Q  E E  E   E     E    E  E    E    E  E  E  E  E E E E E E E  E  E  E  E  E E  E E E E E  Q
||--------------------------------------------------------------------------------------------------||
||o------------------------------------------------------------------------------------------------o||
||--------------------------------------------------------------------------------------------------||
||---9--7-7--7---7----14---14-14---14---11-11-11-11--7-7-7-7-7-7-7--7-14-14-14-14-4--4-4-4-4-4--4---||
||o--9--7-7--7---7----14---14-14---14---11-11-11-11--7-7-7-7-7-7-7--7-14-14-14-14-4--4-4-4-4-4--4--o||
||---7--5-5--5---5----12---12-12---12----9--9--9--9--5-5-5-5-5-5-5--5-12-12-12-12-2--2-2-2-2-2--2---||
|
|    Q  Q    S E    E    Q       E    S  E  E  E  E  E Q   Q   Q    Q     E  E  Q    E E Q   E  E
||----------12-----------------------------------------------------------------12-------------------||
||o-10---------9---10----9--------------10--9-12-14-12-9-----------10-----9---------10-9-----9-12--o||
||------9------------------------9----9--------------------9---9-------------9-----------9----------||
||--------------------------------------------------------------------------------------------------||
||o------------------------------------------------------------------------------------------------o||
||--------------------------------------------------------------------------------------------------||


|-|
|-|
|-|
|-|
|-|
|-|
|
|-|
|-|
|-|
|-|
|-|
|-|


   Outro
    Q=110
   4/4
    Gtr I
    E E E E E E E E  E  E  E  E  E  E  E  E  E  E  E  E  E  E  E  E E E E E E E E E
||-----------------------------------------------------------------------------------||
||o---------------------------------------------------------------------------------o||
||--9-9-9-9-9-9-9-9------------------------------------------------------------------||
||--9-9-9-9-9-9-9-9-10-10-10-10-10-10-10-10-11-11-11-11-11-11-11-11-7-7-7-7-7-7-7-7--||
||o-7-7-7-7-7-7-7-7-10-10-10-10-10-10-10-10-11-11-11-11-11-11-11-11-7-7-7-7-7-7-7-7-o||
||-------------------8--8--8--8--8--8--8--8--9--9--9--9--9--9--9--9-5-5-5-5-5-5-5-5--||
|
|   Gtr II
|   E E E E E E E E  E  E  E  E  E  E  E  E  E  E  E  E  E  E  E  E E E E E E E E E
||----------4-2------------------4--2--------------------4--2---------------4-2------||
||o-5-5-5-5-----5-4--5--5--5--5--------5--4--5--5--5--5--------5--4-5-5-5-5-----5-4-o||
||-----------------------------------------------------------------------------------||
||-----------------------------------------------------------------------------------||
||o---------------------------------------------------------------------------------o||
||-----------------------------------------------------------------------------------||


|-|
|-|
|-|
|-|
|-|
|-|
|
|-|
|-|
|-|
|-|
|-|
|-|


  Gtr I
   E Q   E  W         +E   S
|----------------------------|
|----------------------------|
|----------------------------|
|----------------------------|
|-14-6--13-14--------(14)-14-|
|-12-4--11-12--------(12)-12-|
Comments