Bodyjar - Not The Same Chords & Tabs

 

Not The Same Chords & Tabs

Bodyjar Chords & Tabs

Version: 2 Type: Bass Tab 0 ratings
1 star 2 stars 3 stars 4 stars 5 stars
comments

Not The Same Bass Tab

Not The Same - Bodyjar

  intro (x2)
G|----------------------------------------------------------------|
D|----------------------------------------------------------------|
A|7-7-777-7777-77-3-3-333-3333-33-4-4-444-4444-44-----------------|
E|------------------------------------------------5-5-555-5555-55-|
[ Tab from: http://www.guitartabs.cc/tabs/b/bodyjar/not_the_same_btab_ver_2.html ]
  verse (x2)
G|-----------------------------------------------------------------|
D|--------------------------------------------------------666-4-4--|
A|7-7-777-7777-77---------7776-66-4-4-446-7767-79----------------7-|
E|----------------4-4-444-------------------------5-5-555----------|

  bridge (x2)
G|---------------------------------|
D|---------------------------------|
A|4444444444444444-----------------|
E|----------------2-2-222-2222-2-2-|

  chorus (x2)
G|--------------------------------------------------------------|
D|-------------------------------------------------4444444444444|
A|--------7-77-777-4-4-444----------------7-77-777--------------|
E|7-5--5-7-----------------5-5-555-5-5-5-7----------------------|

Play the INTRO riff once after the chorus.

A tab by Achilles (blue_sincere@hotmail.com)
Comments