Bodyjar - Hazy Shade Of Winter Chords & Tabs

 

Hazy Shade Of Winter Chords & Tabs

Bodyjar Chords & Tabs

Version: 3 Type: Tab 0 ratings
1 star 2 stars 3 stars 4 stars 5 stars
comments

Hazy Shade Of Winter Tab

This is my first tab so im not sure if i did it right but if you play it with the
music you should pick it up fairly easy.

Bodyjar - Hazy shade of winter
[ Tab from: http://www.guitartabs.cc/tabs/b/bodyjar/hazy_shade_of_winter_tab_ver_3.html ]
 
E--------------------------------------------------------------------|
B-----------------4-2b-1------------------1--------------------------|
G-----1-3b-1----3------------1-3b-1-----1---3------------------------|
D-3-3-------3-1------------------------------------------------------|
A------------------------4-4--------4-3------------------------------|
E--------------------------------------------------------------------|
 
E--------------------------------------------------------------------|
B-6666666644444444---------------------------------------------------|
G-55555555333333336666666655555555-----------------------------------|
D-33333333111111116666666655555555-----------------------------------|
A-----------------4444444433333333-----------------------------------|
E--------------------------------------------------------------------|
Comments