Bodyjar - Hazy Shade Of Winter Chords & Tabs

 

Hazy Shade Of Winter Chords & Tabs

Bodyjar Chords & Tabs

Version: 1 Type: Bass Tab 0 ratings
1 star 2 stars 3 stars 4 stars 5 stars
comments

Hazy Shade Of Winter Bass Tab

   
artist:Bodyjar

Song: Hazy Shade Of Winter

By: Grunter (Grunter@mail.com)

Fixed By: Hippy!!! (hippy_kesh@hotmail.com)

Standard Tuning E-A-D-G

Intro:
g-----------------------------------------------------------------------
d-----------------------------------------------------------------------
a-8-8-8-8-8-8-8-8--6-6-6-6-6-6-6-6-6-6--4-4-4-4-4-4-4-4--3-3-3-3-3-3-3-3
e-----------------------------------------------------------------------

The correct way is below:
[ Tab from: http://www.guitartabs.cc/tabs/b/bodyjar/hazy_shade_of_winter_btab.html ]
g-------------------------------------------------------------------------
d-------------------------------------------8-8-8-8--6-6-6-6--3-3-3-3-----
a-8-8-8-8-8-8-8-8-8-8-8-8-8-8-8-8--6-6-6-6-----------------------------4-4
e-------------------------------------------------------------------------

g-----------------------------
d-----------------------------
A-4-4-4-4-4-4-4-4-4-4-4-4-4-4-
e-----------------------------

I fixed the Bridge!!!!
g--------------------------------------
d--------------------------------------
a-0-2-3-4-5-6-7-8--6-6-6-6-6-6-6-6-----
e--------------------------------------

Thats the correct version the previous version was totally off!

Comments