Bodyjar - Feed It Chords & Tabs

 

Feed It Chords & Tabs

Bodyjar Chords & Tabs

Version: 2 Type: Bass Tab 0 ratings
1 star 2 stars 3 stars 4 stars 5 stars
comments

Feed It Bass Tab

   
FTH80:G D A E ; Generated by Fast Tab, do not erase
====================
>From            : Matt Fritz
Artist          : BodyJar
Bass Performance: Feed It
Strings: E ,A ,D ,G 
Symbols explanations:
  ~: bend up  


Intro 1  (Play Intro 1,then Intro 2,then Intro 1 and Intro 2,only because grant bends  
          the strings in Intro 1)                                     
G --------------------------------
D ----------------------3--3------
A --1--1--1----1\-3--3------------
E --------------------------------
                        ~  ~                                                       
Intro 2

G ---------------------------------
D ----------------------3----------
A --1--1--1----1\-3--3-------------
E ----------------------------------

PLay this bit After intro x2

G ------------------------------------------------------
D -------------------------5--3--2H--3------------------
A --1--1--1--1--3--3--5--5--------------3--3--5--5--5---
E ------------------------------------------------------            

I worked out a bit of The Guitar Solo with about 2mins to go in the song i can't work out
the slow bit but just have a look at these bits anyway.

Play this x2
[ Tab from: http://www.guitartabs.cc/tabs/b/bodyjar/feed_it_btab_ver_2.html ]
G ------------------------------------------------------
D -------------------------5--3--2H--3------------------
A --1--1--1--1--3--3--5--5--------------3--3--5--5--5---
E ------------------------------------------------------

Then play this x

G -----------------------------------------------------------------------------------
D --3--3--3--3--3--5--5--5--5--3--3--3--3--3--2--2--2--2--3--3--3--3--3--5--5--5--5--
A -----------------------------------------------------------------------------------
E -----------------------------------------------------------------------------------

G -----------------------------------------------------------------------------------
D --3--3--3--3--3--2--2--2--2--3--3--3--3--3--5--5--5--5--3--3--3--3--3--2--2--2--2--
A -----------------------------------------------------------------------------------
E -----------------------------------------------------------------------------------

G --------------------------------------------------------
D --3--3--3--3--3--5--5--5--5--3--3--3--3--3--2--2--2--2--
A --------------------------------------------------------
E --------------------------------------------------------

Just listen to the cd to get the timing.
when i work out more ill send it to the site so keep an eye out...cya
Comments