Bodyjar - Fall To The Ground Chords & Tabs

 

Fall To The Ground Chords & Tabs

Bodyjar Chords & Tabs

Version: 2 Type: Bass Tab 0 ratings
1 star 2 stars 3 stars 4 stars 5 stars
comments

Fall To The Ground Bass Tab

   
FTH80:G D A E ; Generated by Fast Tab, do not erase
====================
>From            : Matt Fritz(Fritzy34@start.com.au)
Artist          : BodyJar
Bass Performance: Fall To The Ground
Strings: E ,A ,D ,G 
Symbols explanations:
\: slide down 

Intro (Guitar x4 then bass)  
G ------------------------------------------------------------------------------------
D ------------------------------------------------------------------------------------
A --3--5--7--6-------3--3--------3--3--------3--3--------3--5--7--6--3--5--7--6-------
E ------------------------3--2---------3--2--------3--2-------------------------------
                                                                               
Verses                                   
G ----------------------------------------------------
D ----------------------------------------------------
A -----3--3--3----------------------------------------
E --------------3--3--3--1--1--1--2--2--2-------------
[ Tab from: http://www.guitartabs.cc/tabs/b/bodyjar/fall_to_the_ground_btab_ver_2.html ]
Chours                                                                               
G -------------------------------------------------------------------------------
D -------------------------------------------------------------------------------
A -----3--3--3--3--3--3--3--3\-8--8--8--8-10-10-10-10--5--5--7--7--7--5--5--7--7-
E -------------------------------------------------------------------------------
                                                                                                                             
G -------------------------------------------------------------------------------
D -------------------------------------------------------------------------------
A --7--3--3--3--3--5--5--5--5----------------------------------------------------
E -------------------------------------------------------------------------------
                                                                              
Bass Solo
G -------------------------------------------------------------------------------
D --------------------------------------3--3--3--3--3--3-----------------3--3--3-
A -----3--3--3--------------------------------------------3--3--3--3--3----------
E --------------3--3--3--3--1--1--1--1-------------------------------------------
                                                                               
G -------------------------------------------------------------------------------
D --3--3--3-----------------------------------------------------------3--3--3--3-
A -----------3--3--3--3--------------3--3--3-------------------------------------
E -----------------------3--3--3--3-----------3--3--3--3--1--1--1--1-------------
                                                                               
G ----------------------------------------------------------------
D --3--3--------------2--2--2--2--2--2----------------------------
A --------3--3--3--3--------------------3--3--3--3----------------
E --------------------------------------------------3--3--3--3----

In bass solo there are bits where its played faster so just listen to the cd to get
timing right..... 
Comments