Bodyjar - 5 Minutes Away Chords & Tabs

 

5 Minutes Away Chords & Tabs

Bodyjar Chords & Tabs

Version: 1 Type: Tab 0 ratings
1 star 2 stars 3 stars 4 stars 5 stars
comments

5 Minutes Away Tab

BODYJAR-5 MINUTES AWAY
Tabbed by Ben H (PunkAsPhuck)

intro
e|-----------------------------------------------------------------| 
B|--------12-----------12------------------------------------------| 
G|---12------12---12------12-----------55555555--------22-55555555-| 
D|-9----9-------9----9--------55555555-55555555-2244-5522-55555555-| 
A|----------------------------55555555-33333333-2244-5500-33333333-| 
E|----------------------------33333333----------0022-33------------| 

verse
e|------------------------------------------------------------------| 
B|------------------------------------------------------------------| 
G|-----------------5-5-5-5-5-5-5-5--------22-5-5-5-5-5-5-5-5--------| 
D|-5-5-5-5-5-5-5-5-5-5-5-5-5-5-5-5-2244-5522-5-5-5-5-5-5-5-5--------| 
A|-5-5-5-5-5-5-5-5-3-3-3-3-3-3-3-3-2244-5500-3-3-3-3-3-3-3-3--------| 
E|-3-3-3-3-3-3-3-3-----------------0022-33--------------------------| x2

chorus
e|------------------------------------------------------------------| 
B|------------------------------------------------------------------| 
G|-777777-999999----------------------------------------------------| 
D|-777777-999999-101010101010-101010101010-12-12-12-12--------------| 
A|-555555-777777-101010101010-101010101010-12-12-12-12--------------| 
E|----------------8-8-8-8-8-8--8-8-8-8-8-8-10-10-10-10--------------| x4

bridge
e|------------------------------------------------------------------| 
B|--------12-----------12-----------12-13--------12-----------12----| 
G|---12------12---12------12---12-----------12------12---12------12-| 
D|-9----9-------9----9-------9----9-------9----9-------9----9-------| 
A|------------------------------------------------------------------| 
E|------------------------------------------------------------------| 

verse x 2 

chorus x 4 
[ Tab from: http://www.guitartabs.cc/tabs/b/bodyjar/5_minutes_away_tab.html ]
solo 
e|------------------------------------------------------| 
B|-10b--10/12-12----12----12----12----------12----------| 
G|---------------13----13----13-------13-------13-------| 
D----------------------------------15----15-------------| 
A|------------------------------------------------------| 
E|------------------------------------------------------| x9

e|------------------------------------------------------| 
B|-10b-10/12-12----12----12----12----12----12----12-----| 
G|--------------13----13----13----13----13----13--------| 
D|------------------------------------------------------| 
A|------------------------------------------------------| 
E|------------------------------------------------------| 

e|-----------------------------------------| 
B|--------12-----------12-----------12-13--| 
G|---12------12---12------12---12----------| 
D|-9----9-------9----9-------9----9--------| 
A|-----------------------------------------| 
E|-----------------------------------------| x4

e|------------------------------------------------------------------| 
B|------------------------------------------------------------------| 
G|--12-12-12-12-12-12-12-12-12-12-12-12-12-12-12-12-----------------| 
D|------------------------------------------------------------------| 
A|--10-10-10-10-10-10-10-10-10-10-10-10-10-10-10-10-----------------| 
E|------------------------------------------------------------------| 

chorus x 4 

outro
e|---------------------------------------------------------------| 
B|---------------------------------------------------------------| 
G|---5-5-5/-5-5-7-7------5-5-5/-5-5-7-7--------------------------| 
D|---5-5-5/-5-5-7-7-5-5--5-5-5/-5-5-7-7-7-7-7-5~-~---------------| 
A|---3-3-3/-3-5-5-5-5-5--3-3-3/-3-3-5-5-7-7-7-5~-~---------------| 
E|------------------3-3-----------------5-5-5-3~-~---------------|
Comments