Bodyjar - 17 Years Chords & Tabs

 

17 Years Chords & Tabs

Bodyjar Chords & Tabs

Version: 2 Type: Tab 0 ratings
1 star 2 stars 3 stars 4 stars 5 stars
comments

17 Years Tab

   
------------------
BODYJAR - 17 YEARS
------------------

TABBED BY NAMBO - vt57_nam@hotmail.com

STANDARD TUNING

INTRO RIFF1
E|-------------------------------------------------------------|
B|-5-5-5-4-4-4-5-5-5-0-0-0-0-0-0-9-9-9-7-7-7-9-9-9-0-0-2-2-4-4-|
G|-------------------------------------------------------------|
D|-------------------------------------------------------------|
A|-------------------------------------------------------------|
E|-------------------------------------------------------------|

RIFF2
E|-----------------------------------------------------------------|
B|-----------------------------------------------------------------|
G|-----------------------------------------------------------------|
D|---------------------------------9-9-9-9-9-9-9-9-9-9-9-9-9-9-9-9-|
A|-4-4-4-4-4-4-4-4-7-7-7-7-7-7-7-7-7-7-7-7-7-7-7-7-6-6-6-6-6-6-6-6-|
E|-2-2-2-2-2-2-2-2-5-5-5-5-5-5-5-5---------------------------------|

VERSE - PALM MUTE
E|-----------------------------|
B|-----------------------------|
G|-----------------------------|
D|-------------9-9-9-9-9-9-9-9-|
A|-4-4-4-7-7-7-7-7-7-7-7-7-7-7-|
E|-2-2-2-5-5-5-----------------| X 3
   * * * * * * * * * * * * * *
E|-----------------------------|
B|-----------------------------|
G|-----------------------------|
D|-------------9-9-9-9-9-9-9-9-|
A|-4-4-4-7-7-7-7-7-7-7-7-7-7-7-|
E|-2-2-2-5-5-5-----------------|
   * * * * * * * * *

CHORUS:

GUITAR1
E|-----------------------------------------------------------------|
B|-----------------------------------------------------------------|
G|-----------------------------------------------------------------|
D|---------------------------------9-9-9-9-9-9-9-9-9-9-9-9-9-9-9-9-|
A|-7-7-7-7-7-7-7-7-9-9-9-9-9-9-9-9-7-7-7-7-7-7-7-7-7-7-7-7-7-7-7-7-|
E|-5-5-5-5-5-5-5-5-7-7-7-7-7-7-7-7---------------------------------|

E|---------------------------------|
B|---------------------------------|
G|---------------------------------|
D|---------------------------------|
A|-7-7-7-7-7-7-7-7-9-9-9-9-9-9-9-9-|
E|-5-5-5-5-5-5-5-5-7-7-7-7-7-7-7-7-|
[ Tab from: http://www.guitartabs.cc/tabs/b/bodyjar/17_years_tab_ver_2.html ]
GUITAR2
E|-----------------------------------------------------------------|
B|--------------------------------------9------7------5------------|
G|-----------------------------------------------------------------|
D|-----------------------------------------------------------------|
A|-7-7-7-7-7-7-7-7-9-9-9-9-9-9-9-9---------------------------------|
E|-5-5-5-5-5-5-5-5-7-7-7-7-7-7-7-7---------------------------------|

E|---------------------------------|
B|---------------------------------|
G|---------------------------------|
D|---------------------------------|
A|-7-7-7-7-7-7-7-7-9-9-9-9-9-9-9-9-|
E|-5-5-5-5-5-5-5-5-7-7-7-7-7-7-7-7-|

POST-CHORUS -

E|-----------------------------|
B|-----------------------------|
G|-----------------------------|
D|-------------9-9-9-9-9-9-9-9-|
A|-4-4-4-7-7-7-7-7-7-7-7-7-7-7-|
E|-2-2-2-5-5-5-----------------|

VERSE2 - PALM MUTE - CLEAN

E|-----------------------------|
B|-----------------------------|
G|-----------------------------|
D|-----------------------------|
A|-4-4-4-7-7-7-7-7-7-7-7-7-7-7-|
E|-2-2-2-5-5-5-5-5-5-5-5-5-5-5-| X2
   * * * * * * * * * * * * * *

VERSE2 - PART 2
E|-----------------------------|
B|-----------------------------|
G|-----------------------------|
D|-------------9-9-9-9-9-9-9-9-|
A|-4-4-4-7-7-7-7-7-7-7-7-7-7-7-|
E|-2-2-2-5-5-5-----------------| X2

CHORUS

POST CHORUS

BRIDGE:

GUITAR 2
E|-----------------------------------------------------------------|
B|-----------------------------------------------------------------|
G|-----------------------------------------------------------------|
D|---------------------------------9-9-9-9-9-9-9-9-9-9-9-9-9-9-9-9-|
A|-4-4-4-4-4-4-4-4-7-7-7-7-7-7-7-7-7-7-7-7-7-7-7-7-6-6-6-6-6-6-6-6-|
E|-2-2-2-2-2-2-2-2-5-5-5-5-5-5-5-5---------------------------------|

GUITAR 1
E|-------------------------------------------------------------|
B|-5-5-5-4-4-4-5-5-5-0-0-0-0-0-0-9-9-9-7-7-7-9-9-9-0-0-2-2-4-4-|
G|-------------------------------------------------------------|
D|-------------------------------------------------------------|
A|-------------------------------------------------------------|
E|-------------------------------------------------------------|

END BRIDGE
-------------|
-4-5-4-5-4-5-|
-------------|
-------------|
-------------|
-------------|

CHORUS

POST-CHORUS

--------------------
>>>SONG STRUCTURE<<<
--------------------
INTRO RIFF 1 - X2
INTRO RIFF 1 + INTRO RIFF 2 - X2
VERSE 1
CHORUS
POST-CHORUS - X2
VERSE 2 - PART 1
VERSE 2 - PART 2
CHORUS
POST-CHORUS - X2
BRIDGE - X2
END BRIDGE
CHORUS
POST-CHORUS - X2
Comments