Bodyjar - 17 Years Chords & Tabs

 

17 Years Chords & Tabs

Bodyjar Chords & Tabs

Version: 1 Type: Tab 0 ratings
1 star 2 stars 3 stars 4 stars 5 stars
comments

17 Years Tab

Intro								  
guitar one x4								  
E|-----------------------------------|---------------------------------|  
B|--5-5-5-4-4-4-5-5-5-5-5-5-5-5-5-5--|--9-9-9-7-7-7-9-9---------2-4-4--|  
G|-----------------------------------|------------------4-4-4-4--------|  
D|-----------------------------------|---------------------------------|  
A|--4-4-4-4-4-4-4-4-2-2-2-2-2-2-2-2--|--7-7-7-7-7-7-7-7-2-2-2-2-2-2-2--|  
E|-----------------------------------|---------------------------------|  
									   
guitar two x2          kicks in after guitar one has played twice	   
E|----------------------------------------------------------------------|  
B|----------------------------------------------------------------------|  
G|----------------------------------------------------------------------|  
D|----------------2--2-2-2-2-2-2-2-2--9-9-9-9-9-9-9-9--9-9-9-9-9-9-9-9--|  
A|--4-4-4-4-4-4-4-0--0-0-0-0-0-0-0-0--7-7-7-7-7-7-7-6--6-6-6-6-6-6-6-6--|  
E|--2-2-2-2-2-2-2-------------------------------------------------------|  

Try playing it with 'vintage amp' on.

happy playing

P.S you dont have to play the notes on the A string for the intro, it sounds just as good
[ Tab from: http://www.guitartabs.cc/tabs/b/bodyjar/17_years_tab.html ]
Comments