Body Count - The Winner Loses Chords & Tabs

 

The Winner Loses Chords & Tabs

Body Count Chords & Tabs

Version: 2 Type: Tab 0 ratings
1 star 2 stars 3 stars 4 stars 5 stars
comments

The Winner Loses Tab

   
The Winner Loses  -  Body Count
-------------------------------
 
Intro
-----
 
 
    C         D         Em 
E-|-0------0--2------2--0------0-----0-----|
B-|-1----1----3----3----0----0-----0-------|
G-|-0--0------2--2------0--0---------------|
D-|--------2--0------0-----------2---------|
A-|-3-------------------2--------------2---|
E-|----------------------------------------|
                                                                               
    C         D         G                                                       
  
E-|-0------0--2------2--3------3-3---2----|
B-|-1----1----3----3----0----0-0-0---3----|
G-|-0--0------2--2------0--0-----0-0------|
D-|--------2--0------0--------------------|
A-|-3-------------------------------------|
E-|---------------------3--------3--------|
          
[End of intro]
                                                                     
Small part
----------
                                          
E-|-0--------||
B-|---1---1--||
D-|-----0----||
G-|----------||
 
 
[Em]My friend's addicted to co[C]caine  [Small part]
[Em]Smokes day and night 
drives mom and [C]dad insane [Small part] 
etc....
 
Got the picture? good. Now the chorus:
 
 
C D Em
C D Em
C D Em
C D G
 
  That's it I guess.
[ Tab from: http://www.guitartabs.cc/tabs/b/body_count/the_winner_loses_tab_ver_2.html ]
Comments