Body Count - Cop Killer Chords & Tabs

 

Cop Killer Chords & Tabs

Body Count Chords & Tabs

Version: 1 Type: Bass Tab 0 ratings
1 star 2 stars 3 stars 4 stars 5 stars
comments

Cop Killer Bass Tab

COP KILLER
Body Count

tab by mudangel(mudangel@montana.com)

 
 |------3x-----------------|+|------1x-----------------|=1 verse
G---------------------------|---------------------------|---------
D---------------------------|---------------------------|---------
A----------------3---1---3--|----------------5---3---1--|---------
E--3--3--3-3-3-3------------|--3--3--3-3-3-3------------|---------
[ Tab from: http://www.guitartabs.cc/tabs/b/body_count/cop_killer_btab.html ]
 
 |------3x-----------------------------|+|------1x------------------|
 =chorus   
G---------------------------------------|------------------------------|
D---------------------------------------|------------------------------|
A--3--3---1--0--------1-----1-1----1-1--|--3--3---1-----5--1--3--1--0--|
E---------------3--3------3------3------|------------------------------|



  Guitar plays verse once; bass comes in for last 3 notes.
 Play verse 4 times; vocals start on second verse.
  "   chorus 
  "   verse 2 times
  "   chorus
  "   verse 2 times(guitar solo).
  "   verse 2 times(vocal-"fuck the police")
 Chorus
 Verse x2(guitar solo).
 Verse x2("fuck the police")
 Chorus

  This is basically how it went when I played with Die Sister Die.

Comments