Body Count - C Note Chords & Tabs

 

C Note Chords & Tabs

Body Count Chords & Tabs

Version: 1 Type: Tab 0 ratings
1 star 2 stars 3 stars 4 stars 5 stars
comments

C Note Tab

   
                      C NOTE - BODY COUNT


                     TABBED BY DANIEL MACHERA
                     (dmac@attic.apana.org.au)

                   Suggestions, Corrections,  WELCOME

(lead gtr.)

-6----9----7---9--7-|-7---4h6p4--|---4--------6-|-6--9--7h9p7-|-7--4h6p4-
--------------------|------------|------7--9----|-------------|----------
--------------------|------------|--------------|-------------|----------
--------------------|------------|--------------|-------------|----------
--------------------|------------|--------------|-------------|----------
--------------------|------------|--------------|-------------|----------

-4---------6------------------|-----------------|----------|-------------
-----7--9-----9---7--6h7p6--4-|-6h7p6---6h7p6---|--7h9p7---|---6h7p6-----
------------------------------|---------------8-|----------|-------------
------------------------------|-------6---------|----------|-------------
------------------------------|-----------------|----------|-------------
------------------------------|-----------------|----------|-------------
[ Tab from: http://www.guitartabs.cc/tabs/b/body_count/c_note_tab.html ]
-------------------|--6--------)-(-------------|-------------------------
-------------------|-------9--9-----9--7h9p7---|-------6h7p6-------------
-8-7-6-----------8-|---------------------------|--------------8----------
-------8-6-4-6-8---|---------------------------|-------------------------
-------------------|---------------------------|-------------------------
-------------------|---------------------------|-------------------------

-----------------|-------------------------------------------------------
-----------------|-------------------------------------------------------
--6h8p6----------|----6h8p6---8-------6------8----6h8p6-------6---8------
---------6--8----|----------8----6h8----6h8--------------6h8-------------
-----------------|-------------------------------------------------------
-----------------|-------------------------------------------------------

-----------)------------------|------------------------------------------
----11---14----12h14p12--12---|----9h11p9--9--7--9--11--9--7--6--4--2----
------------------------------|------------------------------------------
------------------------------|------------------------------------------
------------------------------|------------------------------------------
------------------------------|------------------------------------------

Use Left Hand Right Hand Fret Board Tapping throughout

  r.h  l.h  r.h  l.h   r.h l.h  r.h l.h
------------------------------------------------------------------
------------------------------------------------------------------
---8p0h7-----7p0h6-----6p0h5-----5p0h4-----5----------------------
------------------------------------------------------------------
------------------------------------------------------------------
------------------------------------------------------------------
Comments