Body Count - Body Counts In The House Chords & Tabs

 

Body Counts In The House Chords & Tabs

Body Count Chords & Tabs

Version: 2 Type: Tab 0 ratings
1 star 2 stars 3 stars 4 stars 5 stars
comments

Body Counts In The House Tab

Body Count's In The House - Body Count
--------------------------------------

Transcribed by Kenny Luong (commie@ratm.org)
http://www.hex-tab.base.org

Intro/Verse
///////////
[ Tab from: http://www.guitartabs.cc/tabs/b/body_count/body_counts_in_the_house_tab_ver_2.html ]
E|---------------------------------|
B|---------------------------------|  ** palm mute these notes
G|---------------------------------|
D|---------------------------------|
A|---------------------------------|
E|--0-0-3-0-0-5-0-0-3-0-0-0-0-0-0--|

Pre-Chorus
//////////

E|------------------|
B|------------------|  ** palm mute these notes
G|------------------|
D|------------------|
A|------------------|
E|--0--0-3-0-5-0-3--|

Chorus
//////

E|-------------------------|
B|-------------------------|
G|--8---5-6-5-6---5-6-3-8--|
D|--8---5-6-5-6---5-6-3-8--|
A|--6---3-4-3-4---3-4-1-6--|
E|-------------------------|
Comments