Bobby Doran - The Long Day Is Over Chords & Tabs

 

The Long Day Is Over Chords & Tabs

Bobby Doran Chords & Tabs

Version: 1 Type: Tab 0 ratings
1 star 2 stars 3 stars 4 stars 5 stars
comments

The Long Day Is Over Tab

Standard Tuning

This song is usually different ever time, acoustic version is a little different than 
electric version and full band version...
Here are the basics, without all the little fills everywhere.
Just play along with the CD!

VERSE

E--0------0------0------0-|
B--0------0------0------0-|
G--9------9------9------6-|
D--9------11-----9------7-|
A--11-----0------x------x-|
E--0-------------9------5-|
[ Tab from: http://www.guitartabs.cc/tabs/b/bobby_doran/the_long_day_is_over_tab.html ]
CHORUS ("You got my mind to turn...")
               (2x)
E-0---0---0-0-0-0-  -0---0---0---0-0-0-0-------0------|
B-0---5---5-5-5-5-  -0---0---2---5-5-0-0---8-8-12-----|
G-6---8---4-4-x-x-  -6---8---5---4-4-6-6---7-7-11-----|
D-7---7---6-x-6-6-  -7---7---4---2-x-7-7--10-9-9------|
A-x---x---7-6-4---  -x---x---x---4-2-x-x---x-x-11-----|
E-5---7---0-----7-  -5---7---4-------5-5---8-7-0------|

BRIDGE ("I'm a shooting star...")

E-0---0---3-3-----0---0---0---0---0---0---0---0---0------|
B-3---3---3-3-3---3---3---3---3---3---3---3---3---0------|
G-5---0---0-0-0---5---0---5---0---5---0---5---0---1------|
D-5---4---0-0-x---5---4---5---4---5---4---5---4---2------|
A-x---5---2-x-2---x---5---x---5---x---5---x---5---2------|
E-5-------3-2-0---5-------5-------5-------5-------0------|

ENDING ("Only to be with you...")

E-0-0-------0-------0----------------0-------0-|
B-0-0---8-8-0---8-8-0---8-8-8-8--8---0---8-8-0-|
G-6-6---7-7-6---7-7-6---7-7-x-x--7---6---7-7-1-|
D-7-7--10-9-7--10-9-7--10-9-9-9-10---7--10-9-2-|
A-x-x---x-x-x---x-x-x---x-x-7-7--x---x---x-x-2-|
E-5-5---8-7-5---8-7-5---8-7---10-8---5---8-7-0-|
Comments