Bobby Doran - Sunrise Chords & Tabs

 

Sunrise Chords & Tabs

Bobby Doran Chords & Tabs

Version: 1 Type: Tab 0 ratings
1 star 2 stars 3 stars 4 stars 5 stars
comments

Sunrise Tab

   
Standard Tuning (capo on 2nd fret)

Such a cool song, this kid plays some cool stuff!!!
Check out the song on bobbydoran.com, the CD sounds like 2 guitars, but he plays it with only one, live!

Intro (12 string)
[ Tab from: http://www.guitartabs.cc/tabs/b/bobby_doran/sunrise_tab.html ]
E-----------------------------|-----------------------|
B-5--6--5^6^5-----------------|------------------9^10-|
G------------7-5\4-5-4--------|--------------9^10-----|
D---------------------7-6/7/9-|(9)--------------------|
A---------------------------7-|(7)--------------------|
E---------------------------0-|(0)0-0-0-0-0-0-0-0-0-0-|

Main Riff (capo 2nd fret)

E---------------------------------5-5-5-5-x-x-x-------------------|
B---------------------------------5-5-5-5-x-x-x-5-x-6-x-8-x-6-x-x-|
G-------9-x-x-x-9---7-------------5-5-5-5-x-x-x-5-x-5-x-5-x-5-x-x-|
D-6-6-6-6-x-x-x-6---6-x10-x-9-x-x-7-7-7-7-x-x-x-7-x-7-x-7-x-7-x-x-|
A-7-7-7-7-x-x-x-7-x-7-x-7-x-7-x-x-0-0-0-0-x-x-x-0-x-0-x-0-x-0-x-x-|
E-0-0-0-0-x-x-x-0-x-0-x-0-x-0-x-x---------------------------------|


Enjoy!
Comments