Bob Marley - Waiting In Vain Chords & Tabs

 

Waiting In Vain Chords & Tabs

Bob Marley Chords & Tabs

Version: 1 Type: Tab 0 ratings
1 star 2 stars 3 stars 4 stars 5 stars
comments

Waiting In Vain Tab

Song: Waiting in Vain (Solo)	
Artist: Bob Marley
Album: Legend
Tabbed By: Matt Sahn 



  (01:49)
e-------------------------------------------------------
B------------------------8--10~-------------------------
G-----------------7--7/9--------------------------------
D----------5--7/9---------------------------------------
A------5/7----------------------------------------------
E---3---------------------------------------------------

e----7-8--10---8p7----8---------------------------------
B--10--------------10---8/10-8------(12)^10-8-10----8~--
G------------------------------9------------------9-----
D-------------------------------------------------------
A-------------------------------------------------------
E-------------------------------------------------------
[ Tab from: http://www.guitartabs.cc/tabs/b/bob_marley/waiting_in_vain_tab.html ]
e--12--10^12~---10-----------10----------------------------
B-----------------12-11-10-11--12-10-10/12--10--10\8-10-8~-
G----------------------------------------------------------
D----------------------------------------------------------
A----------------------------------------------------------
E----------------------------------------------------------

the fast part...
e--------------------------------------10--10-12-10-12---
B-----------------------10--10-12-10-12--12--------------
G-----------9--9-12-9-12--12-----------------------------
D--9-12-9-12-12------------------------------------------
A--------------------------------------------------------
E--------------------------------------------------------

e--(15)/17--15--15\12--12-------12-12-12-12-12-12----------
B----------------------------------------------------------
G----------------------------------------------------------
D----------------------------------------------------------
A----------------------------------------------------------
E----------------------------------------------------------


that's it. have fun... if you liked it, let me know [sahn44@yahoo.com]
Comments