Bob Marley - Stir It Up Chords & Tabs

 

Stir It Up Chords & Tabs

Bob Marley Chords & Tabs

Version: 3 Type: Tab 0 ratings
1 star 2 stars 3 stars 4 stars 5 stars
comments

Stir It Up Tab

Stir It Up
By Bob Marley
tabbed by kel

Well, once again, here is that background guitar part in Bob MArley's song, Stir It up.
 This is pretty close This a great reggea song to play  for friends, family, the hot mama
citas, WHATEVER!  But hey, brace yourselves, cause here it is.
[ Tab from: http://www.guitartabs.cc/tabs/b/bob_marley/stir_it_up_tab_ver_3.html ]
Standard Tunning. And for you beginners,(from low to high)EADGBe
You need to play the following chords on the some what up beats.
And hey, for those who shred, remeber, this is reggea, keep it clean. No distortion.
Its finger muted or palm muted, whatever floats your boat.

e-----9---9-----|
B-----10--10----|
G-----9---9-----|
D-----11--11----| x4
A---------------|
E---------------|


e----10--10-----|
B----10--10-----|
G----11--11-----|
D----12--12-----| x2
A---------------|
E---------------|


e----12--12-----|
B----12--12-----|
G----13--13-----|
D----14--14-----| x2
A---------------|
E---------------|


Great, I hope you injoy this back guitar part.  Grab a friend to play the bass and rasta
man to sing for ya.  peace.  Any questions or comments, email me at tacotikihead@hotmail.com
Comments