Bob Marley - Stir It Up Chords & Tabs

 

Stir It Up Chords & Tabs

Bob Marley Chords & Tabs

Version: 2 Type: Tab 0 ratings
1 star 2 stars 3 stars 4 stars 5 stars
comments

Stir It Up Tab

-[Song   :Stir It Up]--------------- (THIS ONE HAS THE RIFF#2 FIX)
-[Artist  : Bob Marley--(Please Do Not Put The Old One Up, Thank You.)
-[Tuning: Normal]-------
-[Riffs    : Two ]-----
-[Tab     : Bass And Guitar Info]------
-[Email : Masterbahamut@hotmail.com]------

[==================Guitar============================================]

--[Riff#1]-[99% Positive]

E|------------------------------------------
b|------------------------------------------
g|------------------------------------------
d|--------------------------4-7--7---6-9----
a|----0-4--4-5---5-4-4--5---------7---------
e|5-----------------------------------------

      Note:[The Open A String Can Be Played Instead Of The 5th Lower e string]

--[Riff#2]-[99% Positive] This Is The Complete Right Way To Play It On The Guitar.
[ Tab from: http://www.guitartabs.cc/tabs/b/bob_marley/stir_it_up_tab_ver_2.html ]
E|------------------------------------------
b|------------------------------------------
g|------------------------------------------
d|---4-7-----------6------------------------
a|5-5----5-----7-7--9-7---------------------
e|------------------------------------------
               


[===========================Bass====================================]
  
 {Note:} [I Think The Bass Tab Is Pretty Much The Same As The Guitar's
Because It Only Used The Lower Strings. But You Could Try This One Out From
" Kelli Mcguinness "]


--[Riff#1- 100% Correct!]

G|-------------------------------------------------------
D|-----------------2-5---4-7-----------------------------
A|------2--3--2--3----5----------------------------------
E|---3---------------------------------------------------

--[Riff#2- 100% Correct!]
G|--------------------------------------------------------
D|-------------------02-----------------------------------
A|--------02---3-3-3--3-----------------------------------
E|---3-3-3--3---------------------------------------------


Note: [ I've Fixed The Timing So It's Better To See.]
Comments