Bob Marley - Stir It Up Chords & Tabs

 

Stir It Up Chords & Tabs

Bob Marley Chords & Tabs

Version: 1 Type: Tab 0 ratings
1 star 2 stars 3 stars 4 stars 5 stars
comments

Stir It Up Tab

    	Bob Marley - stir it up
		
		by mike lehman
\
ok so here it is. this is for lead guitar  
for those who don't know and it is 
just the chink-a rhythm for those who don't play reggae.
 email me at smokey_j2k@msn.com for questions

STANDARD TUNING NOT DROP D THIS IS REGGAE YOU FOOLS

each chord gets an up and a down stroke for EACH SINGLE 
CHORD!

e---------------------------------------------------------
B---------------------------------------------------------
G---------------------------------------------------------
D-----4-------REPEAT 4 TIMES------------------------------
A-----5---------------------------------------------------
E-----6---------------------------------------------------
[ Tab from: http://www.guitartabs.cc/tabs/b/bob_marley/stir_it_up_tab.html ]
e---------------------------------------------------------
B---------------------------------------------------------
G----5----------------------------------------------------
D----5---------TWO----------------------------------------
A----6----------------------------------------------------
E----7----------------------------------------------------

e---------------------------------------------------------
B----7------------REPAET 2 TIMES   -----------------------
G----8----------------------------------------------------
D----9----------------------------------------------------
A---------------------------------------------------------
E---------------------------------------------------------

U MIGHT WANT TO PALM OR FINGER MUTE THIS DEPENDING ON
WHAT STYLE UR PLAYIN
DON'T ASK ME ABOUT THE SOLO I HAVE NO IDEA AND ANYWAY ITS
 FOR THE OTHER GUITARIST

PEACE GUITAR AND MARLEYNESS`~
Comments