Bob Marley - Roots Rock Reggae Chords & Tabs

 

Roots Rock Reggae Chords & Tabs

Bob Marley Chords & Tabs

Version: 2 Type: Bass Tab 0 ratings
1 star 2 stars 3 stars 4 stars 5 stars
comments

Roots Rock Reggae Bass Tab

   
----------------------------------------------------------------------------
	            Roots Rock Reggae - Bob Marley
----------------------------------------------------------------------------

Tabbed By :Jamie Anderson
e-mail: mail.jamieanderson@gmail.com

Other tabs on the net just had the second part. This is the whole tab with
the intro and variations of part 2.

Tuning:EADG

  Intro:
G|------------------------------x2-----------------------------------------|
D|------------------------------x2-----------------------------------------|
A|-------7-9-9---7-9-9----------x2-----------------------------------------|
E|-5---7----------------7---3---x2-----------------------------------------|

  Bm       Em    Bm        F#m
[ Tab from: http://www.guitartabs.cc/tabs/b/bob_marley/roots_rock_reggae_btab_ver_2.html ]
  Play i some music...
G|----------------------------------x4-------------------------------------|
D|----------------------------------x4-------------------------------------|
A|-------9-9---7--------9-9---9-----x4-------------------------------------|
E|-5-7-7-----7----5-7-7-----7-------x4-------------------------------------|

..Hey mr music...
G|----------------------------------------x4-------------------------------|
D|----------------------------------------x4-------------------------------|
A|-------9-9---7-7----------9-9---9---9---x4-------------------------------|
E|-5-7-7-----7----575-5-7-7-----7---7-----x4-------------------------------|

G|--------------------------------Play this part till the end -------------|
D|-------------------------------------------------------------------------|
A|-------9-9---7-7----------9-9---9----------------------------------------|
E|-5-7-7-----7----575-5-7-7-----7------------------------------------------|

Fade out...
Comments