Bob Marley - Redemption Song Chords & Tabs

 

Redemption Song Chords & Tabs

Bob Marley Chords & Tabs

Version: 3 Type: Tab 0 ratings
1 star 2 stars 3 stars 4 stars 5 stars
comments

Redemption Song Tab

					Bob Marley - Redemption Song

e-------------------------------------------------------------------------------
h-------------------------------------------------------------------------------
g-------------------------------------------------------------------------------
d-------------2-0----------0--------------------------2-0-----------0-----------
a----0-2---3-----2----0-2---0-3-2-0-------0-2---3-----2----0-2---3-2-0----------
E--3-----3----------3------------------3--3------3----------3-----------------3-


e---3--------------0-------------0-------0----------0------------
h---3--------------3-------------1-------1----------1------------
g---0--------------0-------------0-------0----------2------------
d---0--------------2-------------2-------2----------2------------ x3
a---2--------------2-------------3-------2-----------------------
E---3--------------0-------------0-------0-----------------------
><><<><     ><><<><       >>x     >>x        ><><<><


e---3--------------0-------------0-------0----------2--------------------2------
h---3--------------3-------------1-------1----------3--------------------3------
g---0--------------0-------------0-------0----------2--------------------2------
d---0--------------2-------------2-------2----------0--------------------0------
a---2--------------2-------------3-------2--------------------------------------
E---3--------------0-------------0-------0--------------------------------------
><><<><     ><><<><       >>x     >>x        ><><<><         ><><<><


e-----3------------0---------2------
h-----3------------1---------3------
g-----0------------0---------2------
d-----0------------2---------0------ x2
a-----2------------3----------------
E-----3------------0----------------
><><<><       ><><    ><><


e--------------------------0-------2----
h--------------------------1-------3----
g--------------------------0-------2----
d-----2-2-0-2-0-2-0-----2-------0-------
a-----2-2-0-2-0-2-0-----3---------------
E-----0-0-0-0-0-0-0-----0---------------
	             ><><      ><><


e-----3------------0---------2------
h-----3------------1---------3------
g-----0------------0---------2------
d-----0------------2---------0------ x2
a-----2------------3----------------
E-----3------------0----------------
><><<><       ><><    ><><


e---3--------------0-------------0-------0-------------0----
h---3--------------0-------------1-------1-------------1----
g---0--------------0-------------0-------0-------------2----
d---0--------------2-------------2-------2-------------2---- 
a---2--------------2-------------3-------2------------------
E---3--------------0-------------0-------0------------------
><><<><     ><><<><     ><><   ><><        ><><<><
www.tab runner.com

e---3--------------0-------------0-------0----------2-------
h---3--------------3-------------1-------1----------3-------
g---0--------------0-------------0-------0----------2-------
d---0--------------2-------------2-------2----------0-------
a---2--------------2-------------3-------2------------------
E---3--------------0-------------0-------0------------------
><><<><     ><><<><     ><><  ><><      ><><<><         


e---3--------------0-------------0-------0----------0-------
h---3--------------3-------------1-------1----------1-------
g---0--------------0-------------0-------0----------2-------
d---0--------------2-------------2-------2----------2------- 
a---2--------------2-------------3-------2------------------
E---3--------------0-------------0-------0------------------
><><<><     ><><<><       >>x     >>x        ><><<><


e---3--------------0-------------0-------0----------2--------------------2------
h---3--------------0-------------1-------1----------3--------------------3------
g---0--------------0-------------0-------0----------2--------------------2------
d---0--------------2-------------2-------2----------0--------------------0------
a---2--------------2-------------3-------2--------------------------------------
E---3--------------0-------------0-------0--------------------------------------
><><<><     ><><<><       >>x     >>x        ><><<><         ><><<><


e-----3------------0---------2------
h-----3------------1---------3------
g-----0------------0---------2------
d-----0------------2---------0------ x2
a-----2------------3----------------
E-----3------------0----------------
><><<><       ><><    ><><

[ Tab from: http://www.guitartabs.cc/tabs/b/bob_marley/redemption_song_tab_ver_3.html ]
e--------------------------0-------2----
h--------------------------1-------3----
g--------------------------0-------2----
d-----2-2-0-2-0-2-0-----2-------0-------
a-----2-2-0-2-0-2-0-----3---------------
E-----0-0-0-0-0-0-0-----0---------------
	             ><><      ><><     


e-----3------------0---------2------
h-----3------------1---------3------
g-----0------------0---------2------
d-----0------------2---------0------ x3
a-----2------------3----------------
E-----3------------0----------------
><><<><       ><><    ><><


e--------------------------0-------2----
h--------------------------1-------3----
g--------------------------0-------2----
d-----2-2-0-2-0-2-0-----2-------0------- x4
a-----2-2-0-2-0-2-0-----3---------------
E-----0-0-0-0-0-0-0-----0---------------
	             ><><      ><><     

e---3--------------0-------------0-------0-------------0-----
h---3--------------0-------------1-------1-------------1-----
g---0--------------0-------------0-------0-------------2-----
d---0--------------2-------------2-------2-------------2----- 
a---2--------------2-------------3-------2-------------------
E---3--------------0-------------0-------0-------------------
><><<><     ><><<><     ><><   ><><        ><><<><


e---3--------------0-------------0-------0----------2--------
h---3--------------3-------------1-------1----------3--------
g---0--------------0-------------0-------0----------2--------
d---0--------------2-------------2-------2----------0--------
a---2--------------2-------------3-------2-------------------
E---3--------------0-------------0-------0-------------------
><><<><     ><><<><      ><><  ><><      ><><<><         


e---3--------------0-------------0-------0----------0--------
h---3--------------3-------------1-------1----------1--------
g---0--------------0-------------0-------0----------2--------
d---0--------------2-------------2-------2----------2-------- 
a---2--------------2-------------3-------2-------------------
E---3--------------0-------------0-------0-------------------
><><<><     ><><<><       >>x     >>x        ><><<><


e---3--------------0-------------0-------0----------2--------------------2------
h---3--------------0-------------1-------1----------3--------------------3------
g---0--------------0-------------0-------0----------2--------------------2------
d---0--------------2-------------2-------2----------0--------------------0------
a---2--------------2-------------3-------2--------------------------------------
E---3--------------0-------------0-------0--------------------------------------
><><<><     ><><<><       >>x     >>x        ><><<><         ><><<><


e-----3------------0---------2------
h-----3------------1---------3------
g-----0------------0---------2------
d-----0------------2---------0------ x2
a-----2------------3----------------
E-----3------------0----------------
><><<><       ><><    ><><


e--------------------------0-------2----
h--------------------------1-------3----
g--------------------------0-------2----
d-----2-2-0-2-0-2-0-----2-------0------- 
a-----2-2-0-2-0-2-0-----3---------------
E-----0-0-0-0-0-0-0-----0---------------
	             ><><      ><><     


e-----3------------0---------2------
h-----3------------1---------3------
g-----0------------0---------2------
d-----0------------2---------0------ 
a-----2------------3----------------
E-----3------------0----------------
><><<><       ><><    ><><


e--------------------------0-------2----
h--------------------------1-------3----
g--------------------------0-------2----
d-----2-2-0-2-0-2-0-----2-------0------- x2
a-----2-2-0-2-0-2-0-----3---------------
E-----0-0-0-0-0-0-0-----0---------------
	             ><><      ><><     


e-----3------------0---------2------
h-----3------------1---------3------
g-----0------------0---------2------
d-----0------------2---------0------ 
a-----2------------3----------------
E-----3------------0----------------
><><<><       ><><    ><><


e-----3------------0---------0------
h-----3------------1---------1------
g-----0------------0---------0------
d-----0------------2---------2------ 
a-----2------------3---------2------
E-----3------------0----------------
><><<><       ><><    ><><


e----------------------0-0-0-0--
h------------1-1-1-1-1-1-1-1----
g------------0-0-0-0-0-0-1-1----
d----2-2-2-2-2-2----------------
a----2-2-2-2-2-2----------------
E----0-0-0-0-0-0----------------
Comments