Bob Marley - Redemption Song Chords & Tabs

 

Redemption Song Chords & Tabs

Bob Marley Chords & Tabs

Version: 2 Type: Tab 0 ratings
1 star 2 stars 3 stars 4 stars 5 stars
comments

Redemption Song Tab

   
e--------------------------------------------------/
b--------------------------------------------------/
g--------------------------------------------------/
d---------------3---2------------------------------/
a-----h2-----3---------2-3-------h2-----3--2-------/
e---3-----0------------------3-------0-------------/ 

it is played pretty quickly,then you start with a g chord

[ Tab from: http://www.guitartabs.cc/tabs/b/bob_marley/redemption_song_tab_ver_2.html ]
e---3--0---0----2----------------------------------------/
b---3--0---1----3----------------------------------------/
g---0--0---0----2----------------------------------------/
d---0--2---2----0----------------------------------------/
a---2--2---3----0----------------------------------------/
e---3--0---0----0----------------------------------------/

   (g)(em)(c)  (d)

if anyone has more riffs or scales for bob marley please e-mail
me at elliotcoulson@hotmail.com.cheers
Comments