Bob Marley - Positive Vibration Chords & Tabs

 

Positive Vibration Chords & Tabs

Bob Marley Chords & Tabs

Version: 1 Type: Bass Tab 0 ratings
1 star 2 stars 3 stars 4 stars 5 stars
comments

Positive Vibration Bass Tab

			     Positive Vibration- Bob Marley
Album:Rastaman Vibration
Tabbed By :Todd Andrews
e-mail:dumb_bell50@hotmail.com

Tuning:Standard

Intro
G|---------------------------------------------------------------------------|
D|---------------------------------------------------------------------------|
A|0-0---0-4-2----------------------------------------------------------------|
E|---0-2------2-2-2--2-2-2--2-2-2--------------------------------------------|

Verse
8 times   on 9   4 times 4 times on 5  8 times 4 times          two times
G|-------|------|-------|------|------|-------|---------------|--------------|
D|-------|-4----|-------|------|------|-------|---------------|--------------|
A|-------|--4-0-|-2-2222|------|----44|-------|-5-5--5-4-4-4-4|--------------|
E|2-2222-|------|-------|2-2222|-22---|-2-2222|--5-5----5-----|2-2222--------|
[ Tab from: http://www.guitartabs.cc/tabs/b/bob_marley/positive_vibration_btab.html ]
Chorus*8
G|---------------------------------------------------------------------------|
D|---------------------------------------------------------------------------|
A|---------------------------------------------------------------------------|
E|--2-0-222------------------------------------------------------------------|

2nd verse*4
G|-2-2-----------------------------------------------------------------------|
D|---------------------------------------------------------------------------|
A|---------4-2---------------------------------------------------------------|
E|----0-2-5---22222----------------------------------------------------------|

Fade out
G|---------------------------------------------------------------------------|
D|---------------------------------------------------------------------------|
A|---------------------------------------------------------------------------|
E|-2-0-222-------------------------------------------------------------------|

thank you for reading my tab and i hope that it helps you play this magnificent song off 
this magnificent album.
Comments