Bob Marley - Lively Up Yourself Chords & Tabs

 

Lively Up Yourself Chords & Tabs

Bob Marley Chords & Tabs

Version: 2 Type: Bass Tab 0 ratings
1 star 2 stars 3 stars 4 stars 5 stars
comments

Lively Up Yourself Bass Tab

-------------------------------------------------------------------------
			             Lively up Yourself - Bob marley
-------------------------------------------------------------------------

Tabbed By : Curran 
e-mail: Bassplayer@teleport.com

Tuning:EADG

                                            Riff 1
G|-----------------------------------------------|
D|--------------------3--5-----------------------|
A|-------3--5------5---------------3--5----------|
E|----5-------------------------5----------------|
[ Tab from: http://www.guitartabs.cc/tabs/b/bob_marley/lively_up_yourself_btab_ver_2.html ]
                                              Riff 2
G|--------------------------------------------------|
D|---------------------5--3-------------------------|
A|-------3--5--5-------------5--0---------3--5--5---|
E|----5--------------------------------5------------|
 
                                          Riff 3
G|--------------------------------------------|
D|--------------5-5-5-5-----------------------|
A|----3--5----------------------3--5----------|
E|---------------------------5----------------|

                                            riff 4
G|----------------------------------------------|
D|-----------------------5-5-5-5----------------|
A|-------3--------5----------------------3--5---|
E|----5-----5--3----------------------5---------|


The order:

Riff 1  x2
Riff 2  x4
Riff 1  x4
Riff 2  x4
Riff 1  x4
Riff 2  x6
Riff 1  x4
Riff 2  x2
Riff 3  x2
Riff 4  x2
Riff 1  x4
Riff 2  x4


hope you enjoy my tab
Comments