Bob Marley - Is This Love Chords & Tabs

 

Is This Love Chords & Tabs

Bob Marley Chords & Tabs

Version: 4 Type: Tab

Is This Love Tab

Is This Love? - BOB MARLEY


E]-----------------------------------------------------------|
B]-----------------------------------------------------------|
G]---------2~-------------------6---7-6----7-6---------------|
D]-----2h4----4----2h4-----4h7----7-----7-------7\-----------|
A]---4----------4------55------------------------------------|
E]-2---------------------------------------------------------|
[ Tab from: http://www.guitartabs.cc/tabs/b/bob_marley/is_this_love_tab_ver_4.html ]
E]-----------------------------------------------------------|
B]-----------------------------------------------------------|
G]---------2~------------------------------------------------|
D]-----2h4----4----2h4-----4h7--/7-7-7-6-7-6-4~--------------|
A]---4----------4------55------------------------------------|
E]-----------------------------------------------------------|


I think this sounds good , and it's simple.
So you try it and see wat u think.  ^ ^
                                  <  |  >
                                    \_/