Bob Marley - I Shot The Sheriff Chords & Tabs

 

I Shot The Sheriff Chords & Tabs

Bob Marley Chords & Tabs

Version: 2 Type: Tab 0 ratings
1 star 2 stars 3 stars 4 stars 5 stars
comments

I Shot The Sheriff Tab

tabed by Kim

e:-5-5--5-5--5-5--5-5--5-5--5-5--5-5--5-5--8-8--8-8--7-7--7-7--|
B:-5----5----5----5----5----5----5----5----10---10---8----8----|
G:-5----5----5----5----5----5----5----5----10---10---9----9----| 2x
D:-------------------------------------------------------------|
A:-------------------------------------------------------------|
E:-------------------------------------------------------------|


e:-5-5--5-5--5-5--5-5--5-5--5-5--5-5--5-5--|
B:-5----5----5----5----6----6----6----6----|
G:-5----5----5----5----7----7----7----7----| 2x
D:-----------------------------------------|
A:-----------------------------------------|
E:-----------------------------------------|


e:-5-5--5-5--5-5--5-5--5-5--5-5--5-5--5-5--8-8--8-8--7-7--7-7--|
B:-5----5----5----5----5----5----5----5----10---10---8----8----|
G:-5----5----5----5----5----5----5----5----10---10---9----9----|unknow times
D:-------------------------------------------------------------|
A:-------------------------------------------------------------|
E:-------------------------------------------------------------|


e:--------------------|
B:--------------------|
G:-2-0----------------|
D:-----2-0---2-0------|
A:---------3-----3-0--|
E:--------------------|


e:-5-5--5-5--5-5--5-5--5-5--5-5--5-5--5-5--8-8--8-8--7-7--7-7--|
B:-5----5----5----5----5----5----5----5----10---10---8----8----|
G:-5----5----5----5----5----5----5----5----10---10---9----9----|unknow times
D:-------------------------------------------------------------|
A:-------------------------------------------------------------|
E:-------------------------------------------------------------|

[ Tab from: http://www.guitartabs.cc/tabs/b/bob_marley/i_shot_the_sheriff_tab_ver_2.html ]
e:--------------------|
B:--------------------|
G:-2-0----------------|
D:-----2-0---2-0------|
A:---------3-----3-0--|
E:--------------------|


e:-5-5--5-5--5-5--5-5--5-5--5-5--5-5--5-5--8-8--8-8--7-7--7-7--|
B:-5----5----5----5----5----5----5----5----10---10---8----8----|
G:-5----5----5----5----5----5----5----5----10---10---9----9----|unknow times
D:-------------------------------------------------------------|
A:-------------------------------------------------------------|
E:-------------------------------------------------------------|


e:--------------------|
B:--------------------|
G:-2-0----------------|
D:-----2-0---2-0------|
A:---------3-----3-0--|
E:--------------------|


e:-5-5--5-5--5-5--5-5--5-5--5-5--5-5--5-5--8-8--8-8--7-7--7-7--|
B:-5----5----5----5----5----5----5----5----10---10---8----8----|
G:-5----5----5----5----5----5----5----5----10---10---9----9----|unknow times
D:-------------------------------------------------------------|
A:-------------------------------------------------------------|
E:-------------------------------------------------------------|


e:--------------------|
B:--------------------|
G:-2-0----------------|
D:-----2-0---2-0------|
A:---------3-----3-0--|
E:--------------------|


e:-5-5--5-5--5-5--5-5--5-5--5-5--5-5--5-5--8-8--8-8--7-7--7-7--|
B:-5----5----5----5----5----5----5----5----10---10---8----8----|
G:-5----5----5----5----5----5----5----5----10---10---9----9----|unknow times
D:-------------------------------------------------------------|
A:-------------------------------------------------------------|
E:-------------------------------------------------------------|


any coments sentto norrbaggen88@hotmail.com
Comments